» » »

Built To Spill - Creb Tabs

Artists:  A B C D E F G H I J K L M N O P Q R S T U V W X Y Z # 

Creb Tabs

(ver. 1) Click to play this song!
Built To Spill
 Rating:
3/5 (21 vote)

 Creb  lessons Tabs too difficult? Try these video lessons and learn fast
 
                Intro: Bm,G, F#m

e|-------0--------------------------------------------------------------------|
B|-2-0-3---2-0----------------------------------------------------------------|
G|-------------0--------------------------------------------------------------| X 4
D|---------------4------------------------------------------------------------|
A|-2-------4------------------------------------------------------------------|
E|-----3----------------------------------------------------------------------|

Main Riff: use an octave pedal

e|-7-7-10-7------------------------------------------------------------------|
B|-----------10---7-8--------------------------------------------------------|
G|--------------9------------------------------------------------------------| X 4
D|---------------------------------------------------------------------------|
A|---------------------------------------------------------------------------|
E|---------------------------------------------------------------------------|
                                                        
Verse:

Bm   D   Em    G     A
Yeah God don’t know

Bm         D   Em           G             A
Believe me I believe that’s true

Bm          D             Em          G         A
Every day I replace yesterday with my brain

Bm                  D     Em              G             A
Every season passed twice blame it on the C.R.E.B.


Chorus:

Bm               A      G
I never meant to forget you

Bm               A      G
I always forget people I really like

Bm               A      G
If I haven’t seen ‘em for a long time

Bm               A      G
And I haven’t seen you for a long time

Bridge:

2 bars each of Bm, G, whole section three times whilst the bass plays tasty licks
Then one hit on each chord: F#m, A, Bm, G, play this section twice
            
Submit corrections


        Creb  lessons Hard to play? Try these video lessons and learn fast Creb  lessons
        
↑ Back to top | Tablatures and chords for acoustic guitar and electric guitar, ukulele, drums are parodies/interpretations of the original songs. You may use it for private study, scholarship, research or language learning purposes only