» » »

Built To Spill - Another Day Tabs

Artists:  A B C D E F G H I J K L M N O P Q R S T U V W X Y Z # 

Another Day Tabs

(ver. 1) Click to play this song!
Built To Spill
 Rating:
2.1/5 (30 votes)

 Another Day  lessons Tabs too difficult? Try these video lessons and learn fast
 
                A E D

      A         E         D
E|----------------------------------------------------|
B|----------------------------------------------------|
G|----------------------------------------------------|
D|----------------------------------------------------|
A|----------------------------------------------------|
E|--2/5-----7\5-4-----5\4-2-------/10-----------------|


A   E            D  
I can't explain anything to anyone
A                   E             D   xxxx
Don't believe that nothing isn't true
E         A                D                    
And you know you're not the one who gets to decide
E                         A         D
What is right and what is right for you


A      E        D
And I wake up everyday just the same
A          E                D     xxxx
Somewhere between stars and sand
E           A          D
And I was made from material that could never last
E        A                              D
An obsolescence that no one would have planned


A       E            D
And I know there's something deep inside
A                E                D    xxxx
No one's gotta see it to make it real
E       A            D
And I don't expect anyone to read my mind
E             A        D
But when you don't I'm disappointed every time
E       A             D
And if somehow you make it through you're gonna find
E                   A          D
I just want you to know how I feel




Solo Part 1:

    C             Ab             Eb 
E|--------------------------------------------------------------------|
B|--------------------------------------------------------------------|
G|--------------------------------------------------------------------|
D|--------------------------------------------------------------------|
A|------10-11-10-------10-11-10-------10-11-10---10-11-10-11-10-11..--|
E|--8-------------11-------------11-----------------------------------|

    C             Ab             Eb 
E|-------------------------------------------------------------|
B|-------------------------------------------------------------|
G|-------------------------------------------------------------|
D|------------------------------------8------------------------|
A|------10-11-10-------10-11-10---------11-10-10---11-10-------|
E|--8-------------11-------------11----------------------11----|

    C             Ab             Eb             Bb
E|-------------------------------------------------------------------|
B|-------------------------------------------------------------------|
G|-------------------------------------------------------------------|
D|-----------------------------------------------------8-------------|
A|------10-11-10-------10-11-10-------10-11-10---10-11---11-10-11..--|
E|--8-------------11-------------11----------------------------------|


    C             Ab             Eb           Bb
E|---------------------------------------------------------|
B|---------------------------------------------------------|
G|---------------------------------------------------------|
D|-----------------------------------------8---------------|
A|------10-11-10-------11---10-------11-10---11-10--8------|
E|--8-------------11------------11---------------------11--|



Solo Part 2:

Listen for the rhythm. It's sort of hard.. here are just the chords.
E chord is a quick transition

    A   (E) F          G          D         C   B
E|--5----7--8----------10---------------------------------------|
B|--5----9--10---------12---------------------------------------|
G|--6----9--10---------12---------7--7--7---5---4---------------|     x4
D|--7----9--10---------12---------------------------------------|
A|--7----7--8----------10---------5--5--5---3---2---------------|
E|--5-----------------------------------------------------------|

    E       F          G          D         C   B
E|--7-------8----------10---------------------------------------|
B|--9-------10---------12---------------------------------------|
G|--9-------10---------12---------7--7--7---5---4---------------|     x2
D|--9-------10---------12---------------------------------------|
A|--7-------8----------10---------5--5--5---3---2---------------|
E|--------------------------------------------------------------|

    A   (E) F          G          D         C   B
E|--5----7--8----------10---------------------------------------|
B|--5----9--10---------12---------------------------------------|
G|--6----9--10---------12---------7--7--7---5---4---------------|
D|--7----9--10---------12---------------------------------------|
A|--7----7--8----------10---------5--5--5---3---2---------------|
E|--5-----------------------------------------------------------|

    A   (E) F          G       
E|--5----7--8----------10---------|
B|--5----9--10---------12---------|
G|--6----9--10---------12---------|
D|--7----9--10---------12---------|
A|--7----7--8----------10---------|
E|--5-----------------------------|


Solo Part 3 (slide):

A E D x2

    E                  A                D     (Ending varies)           
E|----------------------------------------------------|
B|-----------9---------------14------14\------7---7---|
G|--7--/--9-----9--9--/--14------14--14\--7-7---7-----|    x4
D|--7--/--9-----9--9--/--14------14--14\--7-7---7-----|
A|----------------------------------------------------|
E|----------------------------------------------------|



A        E         D
And our choices fade into the emptiness
A            E                    D
Right before we start to fade ourselves
E                A             D
And now it seems like the only thing on my mind
E            A               D
Is getting all these things off my chest before I die
E           A                 D
And going back to where the earth is soft to try to find
E                  A            D 
Somewhere we can bury all our mistakes

F#m            
Submit corrections


        Another Day  lessons Hard to play? Try these video lessons and learn fast Another Day  lessons
        
↑ Back to top | Tablatures and chords for acoustic guitar and electric guitar, ukulele, drums are parodies/interpretations of the original songs. You may use it for private study, scholarship, research or language learning purposes only