» » »

Building 429 - Where I Belong Tabs

Artists:  A B C D E F G H I J K L M N O P Q R S T U V W X Y Z # 

Where I Belong Tabs

(ver. 1) Click to play this song!
Building 429
 Rating:
3/5 (28 votes)

 Where I Belong lessons Tabs too difficult? Try these video lessons and learn fast
 
                Tuning: Standard
intro and verse
e|---------------------------------------------------------------------------|
B|---------------------------------------------------------------------------|
G|---------------------------------------------------------------------------|
D|-6---2---6---2---6---2---4-------------------------------------------------|
A|-6---2---6---2---6---2---4-------------------------------------------------|
E|-4---0---4---0---4---0---2-------------------------------------------------|
chorus
e|---------------------------------------------------------------------------|
B|---------------------------------------------------------------------------|
G|-4-4-4-4-4-4-4-4---------------------------------9-9-9-9-9-9-9-9-----------|
D|-4-4-4-4-4-4-4-4-4-4-4-4-4-4-4-4-6-6-6-6-6-6-6-6-9-9-9-9-9-9-9-9-----------|
A|-2-2-2-2-2-2-2-2-4-4-4-4-4-4-4-4-6-6-6-6-6-6-6-6-7-7-7-7-7-7-7-7-----------|
E|-----------------2-2-2-2-2-2-2-2-4-4-4-4-4-4-4-4---------------------------|
Bridge
e|--------------------------------------------------------------------------|
B|--------------------------------------------------------------------------|
G|-9-9-9-9-9-9-9-9-6-6-6-6-6-6-6-6-4-4-4-4-4-4-4-4--------------------------|
D|-9-9-9-9-9-9-9-9-6-6-6-6-6-6-6-6-4-4-4-4-4-4-4-4-4-4-4-4-4-4-4-4-4--------|
A|-7-7-7-7-7-7-7-7-4-4-4-4-4-4-4-4-2-2-2-2-2-2-2-2-4-4-4-4-4-4-4-4-4--------|
E|-------------------------------------------------2-2-2-2-2-2-2-2-2--------|
            
Submit corrections


        Where I Belong lessons Hard to play? Try these video lessons and learn fast Where I Belong lessons
        
↑ Back to top | Tablatures and chords for acoustic guitar and electric guitar, ukulele, drums are parodies/interpretations of the original songs. You may use it for private study, scholarship, research or language learning purposes only