Home » B » Building 429 »

Building 429 - Impossible Bass

Artists:  A B C D E F G H I J K L M N O P Q R S T U V W X Y Z # 

Impossible Bass

(ver. 1) Click to play this song!
Building 429

    INTRO
G|------7---5---------------------------7---5--------------------------------|
D|------------7-3-5---5---3-5-7-3-------------7-3-5---5---3-5-3-7------------|
A|--5-------------------------------5----------------------------------------|
E|---------------------------------------------------------------------------|

G|------7---5---------------------------7---5--------------------------------|
D|------------7-3-5---5---3-5-7-3-------------7-3-5---5---3-5-3-7------------|
A|--5-------------------------------5----------------------------------------|
E|---------------------------------------------------------------------------|

G|------7---5----------------------------------------------------------------|
D|------------7-3-5---5---3-5-7-3---7-7-7-7-7-7-7-7-7-7-7-7-7-7-7-7----------|
A|--5------------------------------------------------------------------------|
E|---------------------------------------------------------------------------|

    VERSE
G|------7---5---------------------------7---5--------------------------------|
D|------------7-3-5---5---3-5-7-3-------------7-3-5---5---3-5-3-7------------|
A|--5-------------------------------5----------------------------------------|
E|---------------------------------------------------------------------------|

G|------7---5---------------------------7---5--------------------------------|
D|------------7-3-5---5---3-5-7-3-------------7-3-5---5---3-5-3-7------------|
A|--5-------------------------------5----------------------------------------|
E|---------------------------------------------------------------------------|

G|------7---5---------------------------7---5--------------------------------|
D|------------7-3-5---5---3-5-7-3-------------7-3-5---5---3-5-3-7------------|
A|--5-------------------------------5----------------------------------------|
E|---------------------------------------------------------------------------|

G|------7---5---------------------------------------6-6-6-6-9-9-9-9----------|
D|------------7-3-5---5---3-5-7-3---7-7-7-7-7-7-7-7--------------------------|
A|--5------------------------------------------------------------------------|
E|---------------------------------------------------------------------------|

    CHORUS
G|---------------------------------------------------------------------------|
D|---------------------------------------------------------------------------|
A|--8------------------------------------------------------------------------|
E|---------------------------------------------------------------------------|

G|---------------------------------------------------------------------------|
D|---------------------------------------------------------------------------|
A|----------------------------------8---8---6-8---6-8---8---6-8---6----------|
E|---------------------------------------------------------------------------|

G|---------------------------------------------------------------------------|
D|------------------6-6-6-6-8-8-8-8------------------------------------------|
A|--8-8-8-8-8-8-8-8-----------------6-6-6-6-6-6-6-6-6-6-6-6-6-6-6-6----------|
E|---------------------------------------------------------------------------|

G|---------------------------------------------------------------------------|
D|--8-8-8-8-8-8-8-8-8-8-8-8-8-8-8-8------------------------------------------|
A|----------------------------------8---8---6-8---6-8---8---6-8--------------|
E|---------------------------------------------------------------------------|

    INTERLUDE 1
G|------7---5---------------------------7---5--------------------------------|
D|------------7-3-5---5---3-5-7-3-------------7-3-5---5---3-5-3-7------------|
A|--5-------------------------------5----------------------------------------|
E|---------------------------------------------------------------------------|

G|------7---5----------------------------------------------------------------|
D|------------7-3-5---5---3-5-7-3---7-7-7-7-7-7-7-7-7-7-7-7-7-7-7-7----------|
A|--5------------------------------------------------------------------------|
E|---------------------------------------------------------------------------|

    VERSE

    CHORUS

    INTERLUDE 2
G|------7---5----------------------------------------------------------------|
D|------------7-3-5---5---3-5-7-3---7-7-7-7-7-7-7-7-7-7-7-7-7-7-7-7----------|
A|--5------------------------------------------------------------------------|
E|---------------------------------------------------------------------------|

    BRIDGE
G|---------------------------------------------------------------------------|
D|---------------------------------------------------------------------------|
A|---------------------------------------------------------------------------|
E|---------------------------------------------------------------------------|

G|---------------------------------------------------------------------------|
D|---------------------------------------------------------------------------|
A|---------------------------------------------------------------------------|
E|---------------------------------------------------------------------------|

G|------7---5---------------------------7---5--------------------------------|
D|------------7-3-5---5---3-5-7-3-------------7-3-5---5---3-5-3-7------------|
A|--5-------------------------------5----------------------------------------|
E|---------------------------------------------------------------------------|

G|------7---5----------------------------------------------------------------|
D|------------7-3-5---5---3-5-7-3---7-7-7-7-7-7-7-7-7-7-7-7-7-7-7-7----------|
A|--5------------------------------------------------------------------------|
E|---------------------------------------------------------------------------|

    CHORUS 2
G|---------------------------------------------------------------------------|
D|---------------------------------------------------------------------------|
A|--8-8-8-8-8-8-8-8-8-8-8-8-8-8-8-8-6-6-6-6-6-6-6-6-6-6-6-6-6-6-6-6----------|
E|---------------------------------------------------------------------------|

G|---------------------------------------------------------------------------|
D|--8-8-8-8-8-8-8-8-8-8-8-8-8-8-8-8------------------------------------------|
A|----------------------------------8---8---6-8---6-8---8---6-8---6----------|
E|---------------------------------------------------------------------------|

G|---------------------------------------------------------------------------|
D|------------------6-6-6-6-8-8-8-8------------------------------------------|
A|--8-8-8-8-8-8-8-8-----------------6-6-6-6-6-6-6-6-6-6-6-6-6-6-6-6----------|
E|---------------------------------------------------------------------------|

G|---------------------------------------------------------------------------|
D|--8-8-8-8-8-8-8-8-8-8-8-8-8-8-8-8------------------------------------------|
A|----------------------------------8---8---6-8---6-8---8---6-8--------------|
E|---------------------------------------------------------------------------|

    OUTRO
G|------10---8-----------------------------10---8----------------------------|
D|-------------10-6-8---8---6-8-10-6--------------10-6-8---8---6-8-6-10------|
A|--8----------------------------------8-------------------------------------|
E|---------------------------------------------------------------------------|

G|------10---8--------------------------------------------------------------------------|
D|-------------10-6-8---8---6-8-10-6---10-10-10-10-10-10-10-10-10-10-10-10-10-10-10-10--|
A|--8-----------------------------------------------------------------------------------|
E|--------------------------------------------------------------------------------------|

G|------------|
D|------------|
A|--8\--------|
E|------------|            
Submit corrections

↑ Back to top | Tablatures and chords for acoustic guitar and electric guitar, ukulele, drums are parodies/interpretations of the original songs. You may use it for private study, scholarship, research or language learning purposes only