» » »

Buffalo Springfield - Questions Bass

Artists:  A B C D E F G H I J K L M N O P Q R S T U V W X Y Z # 

Questions Bass

(ver. 1) Click to play this song!
Buffalo Springfield
 Rating:
4.3/5 (29 votes)

 Questions lessons Tabs too difficult? Try these video lessons and learn fast
 
                 [Intro]
 Q=107
 4/4
 Gtr I
   Wx2          Q.   E E Q  E   +E  Q.   E Q  E   +E  Q  Q  Q  E
G|------------|---------------|-----------------|----------------||
D|------------|-------------7-|-(7)-7----7-7----|--------5--5--7-||
A|------------|-5----5-5-5----|---------------3-|-(3)-3----------||
E|------------|---------------|-----------------|----------------||


  [1st - 5th Verses (3rd & 5th time Guitar Solo)]
  Segno $
    Q  Q  H      Q  Q  E E E E   E E E E +H       Q  Q  H
G||-------------|---------------|-----0-5-(5)----|------------|
D||o------------|-7--7--7-5-----|---2------------|-5--5--5----|
A||o-5--5--5----|-----------7-5-|-3--------------|------------|
E||-------------|---------------|----------------|------------|


   Q  Q  H      Q  Q  E E E E   E E E E +H       Q  Q  H
G|------------|---------------|-----0-5-(5)----|------------||
D|------------|-7--7--7-5-----|---2------------|-5--5--5----||
A|-5--5--5----|-----------7-5-|-3--------------|------------||
E|------------|---------------|----------------|------------||


 [Chorus (3rd & 5th time Guitar Solo)]
                                                          To Coda
   Q.   E E Q.     E E E Q.   Q    E E E Q.   Q    E E E Q.   Q
G|------7--------|---7-----------|---7-----------|---7------------|
D|--------4-7----|-----4-7----7--|-----4-7----7--|-----4-7----7---|
A|-5-------------|-5-------------|-5-------------|-5--------------|
E|---------------|---------------|---------------|----------------|


                       1.,2.,3.                 4.
                                                       Dal Segno al Coda
     E  E  Q   E E  Q     E E  Q  E  E  E  E   4x  E E  Q  E  E  E  E
G|-/12-11--------------|-----------------------||-----------------------||
D|--------12--10-9-----|------------------12\-o||------------------12\--||
A|-----------------12--|-10-9-----9-10-12-----o||-10-9-----9-10-12------||
E|---------------------|------12---------------||------12---------------||


[Outro]
 Coda &
     E  E  Q   E E  Q     E E  Q  E  E  E  E    Q  Q  H
G|-/12-11--------------|----------------------|------------*|
D|--------12--10-9-----|------------------12\-|------------*|
A|-----------------12--|-10-9-----9-10-12-----|-5--5--5----*|
E|---------------------|------12--------------|------------*|
             
Submit corrections


        Questions lessons Hard to play? Try these video lessons and learn fast Questions lessons
        
↑ Back to top | Tablatures and chords for acoustic guitar and electric guitar, ukulele, drums are parodies/interpretations of the original songs. You may use it for private study, scholarship, research or language learning purposes only