Home » B » Budgie »

Budgie - Who Do You Want For Your Love Tabs

Artists:  A B C D E F G H I J K L M N O P Q R S T U V W X Y Z # 

Who Do You Want For Your Love Tabs

(ver. 1) Click to play this song!
Budgie
[Intro]
Clean with Tremolo (or with volume knob like Tony in the video)
Eb|-7---7--7-10-7/13--]   -------------------|
Bb|-8---8--8-8--8/11--]   --7-7-10-7--5------|
Gb|-9---9--9-9--9/12--]   --7-7-7--7--5------|
Db|-10--10-7-7--7/10--]X2 --7-7-7--7--5------|
Ab|-7---7--7-7--7/10--]   -------------------|
Eb|-7---7--7-7--7/10--]   -------------------|
 
Verse
clean no trem
Eb|-------7-7-7-7-5-7-5---------8-8--|
Bb|-------5-5-5-5-5-5-5---------6-6--|
Gb|-------5-5-5-5-5-5-5--------------|
Db|----------------------------------|x10
Ab|----------------------------------|
Eb|-0-3-5-----------------0-3-5------|
 
there are some transitions that go like this Not 100% sure about them
Eb|-7----5----7----10----|
Bb|-8----5----7----10----|
Gb|-7----5----7----10----|
 
Distorted(or fuzz) Fast Chords  played with lots muted strings listen for timing
Eb|--12----10--9-------------12--10--9----------------------------------------|
Bb|--9-----8---7---9---------9---8---7----------------------------------------|
Gb|--9-----7---6---9---------9---7---6-----9--9--9----------------------------|
Db|--9-----7---6---9---------9---7---6-----9--9--9hold------------------------|
Ab|----------------------------------------7--7--7----------------------------|
Eb|---------------------------------------------------------------------------|
 
Chugging riffs
Eb|-----------------------------------------------------------------------------|
Bb|-----------------------------------------------------------------------------|
Gb|------9------9-----9------------9-----7-----6-----5-----4--------------------|
Db|------9------9-----9------------9-----7-----6-----5-----4--------------------|
Ab|------7------7-----7------------7-----5-----4-----3-----2--------------------|x2
Eb|--0-0----0-0---0-0----------0-0---0-0---0-0---0-0---0-0----------------------|
 
Eb|---------------------------------------------------------------------------|
Bb|---------------------------------------------------------------------------|
Gb|------9-----7-----9--------------------------------------------------------|
Db|------9-----7-----9--------------------------------------------------------|
Ab|------7-----5-----7--------5-5p4p2-5p4p2 4---------------------------------|x2
Eb|--0-0---0-0---0-0----0-4-7-------------------------------------------------|
 
 
distorted verse
Eb|--------------------------------------------------|
Bb|--------------------------------------------------|
Gb|-------------7------------------------------------|x7
Db|---------7-9-------------7--9---------------------|
Ab|---7h8h9-----------7h8h9--------------------------|
Eb|--------------------------------------------------|
 
On 8th time play this instead
Eb|---------------------------------------------------------------|
Bb|---------9-7----9-7---9-7--------------------------------------|
Gb|---------9-7-9--9-7-9-9-7--------------------------------------|
Db|-------7-----9------9------------------------------------------|
Ab|-7h8h9---------------------------------------------------------|
Eb|---------------------------------------------------------------|
 
 
Break down
Eb|-------------------------------------------------------------------------------|
Bb|-------------------------------------------------------------------------------|
Gb|-------------------------------9-9-------------------------4/6\5---------------|
Db|--------7----7-----7-----9-----9-9-------7-----7-----7-----5/7\4---------------|x2
Ab|--------6----6-----6-----7-----7-7-------6-----6-----6-------------------------|
Eb|--0h7h9---0-0--0-0---0-0---0-0-----0h7h9---0-0---0-0---0-0---------------------|
 
key change
Eb|-----------------------------------------------------------------------------|
Bb|-------------------------------10-10------------------------5/7\5------------|
Gb|-------7-----7-----7-----9-----9--9--------6-----6-----6----5/7\5------------|
Db|-------6-----6-----6-----7-----7--7--------7-----7-----7---------------------|
Ab|-0h7h9---0-0---0-0---0-0---0-0-------0h7h9---0-0---0-0---0-0-----------------|
Eb|-----------------------------------------------------------------------------|
 
repeat the chugging riffs, then repeat the distorted verse, then the breakdown, then the distorted chords
then back to the verse
 
[Outro]
 
Eb|---------------------------------------------------------------------------|
Bb|---------8b----------------------------------------------------------------|
Gb|-----7-9---------7-9-------------------------------------------------------|
Db|-789---------789-----------------------------------------------------------|
Ab|---------------------------------------------------------------------------|
Eb|---------------------------------------------------------------------------|
            
Submit corrections

↑ Back to top | Tablatures and chords for acoustic guitar and electric guitar, ukulele, drums are parodies/interpretations of the original songs. You may use it for private study, scholarship, research or language learning purposes only