Home » B » Budgie »

Budgie - Nude Disintegrating Parachutist Woman Bass

Artists:  A B C D E F G H I J K L M N O P Q R S T U V W X Y Z # 

Nude Disintegrating Parachutist Woman Bass

(ver. 1) Click to play this song!
Budgie
Bass Tab for Nude Disintegrating Parachutist Woman by Budgie

Guitar Only first 4x, then
Main Riff
G|------------------------------------------------------|
D|------------------------------------------------------|
A|--------2-4-------------------------------------------|
E|-2-4-4------2-4-4-4--2-4-4--2--3----------------------|4x

". . . a mystery girl"
G|------------------------------------------------------|
D|---------2-4--------2---------2-4----------2----------|
A|-2-4-4------2-4-4-4--2--2-4-4------2-4-4-4---2--------|
E|------------------------------------------------------|1x

Main Riff
G|------------------------------------------------------|
D|------------------------------------------------------|
A|--------2-4-------------------------------------------|
E|-2-4-4------2-4-4-4--2-4-4--2--3----------------------|1x

Chorus
G|------------------------------------------------------|
D|--------4-6-4---6-4----------2-4-2---2----------------|
A|-/6-4-6-------6-----6--4-2-4-------4---4-2------------|
E|------------------------------------------------------|1x

Main Riff
G|------------------------------------------------------|
D|------------------------------------------------------|
A|--------2-4-------------------------------------------|
E|-2-4-4------2-4-4-4--2-4-4--2--3----------------------|4x

". . . a mystery girl"
G|------------------------------------------------------|
D|---------2-4--------2---------2-4----------2----------|
A|-2-4-4------2-4-4-4--2--2-4-4------2-4-4-4---2--------|
E|------------------------------------------------------|1x

Main Riff
G|------------------------------------------------------|
D|------------------------------------------------------|
A|--------2-4-------------------------------------------|
E|-2-4-4------2-4-4-4--2-4-4--2--3----------------------|1x

Chorus
G|------------------------------------------------------|
D|--------4-6-4---6-4----------2-4-2---2----------------|
A|-/6-4-6-------6-----6--4-2-4-------4---4-2------------|
E|------------------------------------------------------|1x

Guitar solo part
G|------------------------------------------------------|
D|-------------------2-4-4------------------------------|
A|-----------2-2-4-4------------------------------------|
E|-2-2-2-4-4--------------------------------------------|4x

Guitar break
G|------------------------------------------------------|
D|--------------------------4---6---4---4---------------|
A|------------------------6---6---6---6---6-4-----------|
E|-2-4-4---2-4-4---2-4-4--------------------------------|1x

Guitar and bass
G|-------------8-6-------------8-6---------------8-6-----|
D|-------4-6-8-----------4-6-8-----8-------4-6-8-----8-6-|
A|-------------------------------------------------------|
E|-2-4-4-----------2-4-4-------------2-4-4---------------|1x

then
G|------------------------------------------------------|
D|---4---6---4---4--------------------------------------|
A|-6---6---6---6---6-4----------------------------------|
E|------------------------------------------------------|1x

Main Riff
G|------------------------------------------------------|
D|------------------------------------------------------|
A|--------2-4-------------------------------------------|
E|-2-4-4------2-4-4-4--2-4-4--2--3----------------------|4x

". . . a mystery girl"
G|------------------------------------------------------|
D|---------2-4--------2---------2-4----------2----------|
A|-2-4-4------2-4-4-4--2--2-4-4------2-4-4-4---4--------|
E|------------------------------------------------------|1x

Chorus
G|------------------------------------------------------|
D|--------4-6-4---6-4----------2-4-2---2----------------|
A|-/6-4-6-------6-----6--4-2-4-------4---4-2------------|
E|------------------------------------------------------|1x

Main Riff
G|------------------------------------------------------|
D|------------------------------------------------------|
A|--------2-4-------------------------------------------|
E|-2-4-4------2-4-4-4--2-4-4--2--3----------------------|1x

Chorus
G|------------------------------------------------------|
D|--------4-6-4---6-4----------2-4-2---2----------------|
A|-/6-4-6-------6-----6--4-2-4-------4---4-2------------|
E|---------------------------------------------2--4-----|1x


I found the guitar main riff on a tab site and the tried to figure out the rest for 
 Here it is.
            
Submit corrections

↑ Back to top | Tablatures and chords for acoustic guitar and electric guitar, ukulele, drums are parodies/interpretations of the original songs. You may use it for private study, scholarship, research or language learning purposes only