Home » B » Budgie »

Budgie - Guts Tabs

Artists:  A B C D E F G H I J K L M N O P Q R S T U V W X Y Z # 

Guts Tabs

(ver. 1) Click to play this song!
Budgie
 Rating:
4/5 (4 votes)
                #




                                    Guts

                                   Budgie

The first track on the first album. This is also the first
some more - the others seem more difficult), so let me know how
good it is. I've just put the basics; I've not bothered pointing
out where a riff cuts out early etc.

Tune down to Eb (half a step).

Main Riff
e|-----------------------------------------------|
B|-----------------------------------------------|
G|-----------------------------------------------|
D|-----------------------------------------------|
A|----------------7h8p7------------------5h6p5---|
E|-3-2-1-0-0-5h6h7------0-3-2-1-0-0-5h6h7------0-|

Chorus
e|---------------------------------------------|
B|---------------------------------------------|
G|---------------------------------------------|
D|-9-9-7-9----9-9-7-9----9-9-7-9----9-9-7-9----|
A|-7-7-5-7----7-7-5-7----7-7-5-7----7-7-5-7----|
E|---------------------------------------------|

Bridge pt1
e|-----------------------|
B|-----------------------|
G|-----------------------|
D|-----------------------|
A|---------7---------5h7-|
E|-2-2-5h7---2-2-5h7-----|

Bridge pt2
e|-----------------------|
B|-----------------------|
G|-----------------------|
D|---------7---------5h7-|
A|-2-2-5h7---2-2-5h7-----|
E|-----------------------|

'Harmony' (over main riff)
e|---------------------------------------------12~~~~~-|
B|-------10-12-10----12~~~~~-------10-12-10------------|
G|-9--12----------12---------9--12----------12---------|
D|-----------------------------------------------------|
A|-----------------------------------------------------|
E|-----------------------------------------------------|

Outro
e|-----------------------------------|
B|-----------------------------------|
G|---------------5----------------7--|
D|-------5---7------------5---7------|
A|-0-7-0---0---0----0-7-0---0---0----|
E|-----------------------------------|


--
Matt Javes              Everything above represents my opinion only.
                                Except when I'm lying....
            
Submit corrections

↑ Back to top | Tablatures and chords for acoustic guitar and electric guitar, ukulele, drums are parodies/interpretations of the original songs. You may use it for private study, scholarship, research or language learning purposes only