Home » B » Budgie »

Budgie - Baby Please Dont Go Bass

Artists:  A B C D E F G H I J K L M N O P Q R S T U V W X Y Z # 

Baby Please Dont Go Bass

(ver. 1) Click to play this song!
Budgie
Tuning = Standard



G|-----------------|
D|-------4-4-------|
A|-5-6-6-----6-6-4-|
E|-----------------|

00:44
G|-----------|
D|-----4-----|
A|-4-6---6-4-|
E|-----------|X74 there or take


01:35
G|-------------|
D|-------------|
A|-----4-------|
E|-4-6----4--0-|X8

01:53
G|-----------|
D|-----4-----|
A|-4-6---6-4-|
E|-----------|X48

02:48
G|-------------|
D|-----4-------|
A|-4-6---6-4-6-|
E|-------------|X3

02:54
G|-----------|   |------------------|  G|-----------|    |------------------|
D|-----4-----|   |-----4------------|  D|-----4-----|    |-----4------------| 
A|-4-6---6-4-|   |-4-6----6-4-------|  A|-4-6---6-4-|    |-4-6----6-4-------| 
E|-----------|X7 |------------6-4-4-|  E|-----------|X3  |------------6-4-4-|


03:09
G|-----------|-----------|----------------------------|---------------------|
D|-----4-----|-----4-----|-----4----------4-4-6-6-7-7-|---------------------|
A|-4-6---6-4-|-4-6---6-4-|-4-6---6-4--6-6-------------|-6-6-6-6-6-6-6-6-4-6-|
E|-----------|-----------|----------------------------|---------------------|


G|-----------------|-----------------|-----------------------------------------------|
D|-----------------|-----------------|-----------------------------------------------|
A|-6-6--6-6--6-6-6-|-6-6--6-6--6-6-6-|-6-6-6--6--6--6-4-4-6-6--6-6-6--6--6--6--4-4-6-|
E|-----------------|-----------------|-----------------------------------------------|


03:21
G|-------------|
D|-----4-------|
A|-4-6---6-4-6-|this continues for some time Ad lib
E|-------------|


04:03
G|--s--6-----|
D|-6\8---4---|
A|---------6-|
E|-----------|X8


04:22                              s
G|----------------------------4-4-6\-|
D|-6-6-6-6--4-4-4-4--6-6-6-6---------|
A|-----------------------------------|
E|-----------------------------------|


G|-------------|
D|-----4-------|
A|-4-6---6-4-6-|
E|-------------|X4

                                   s
G|----------------------------4-4-6\-|
D|-6-6-6-6--4-4-4-4--6-6-6-6---------|
A|-----------------------------------|
E|-----------------------------------|


G|-------------|
D|-----4-------|
A|-4-6---6-4-6-|play till the end
E|-------------|            
Submit corrections

↑ Back to top | Tablatures and chords for acoustic guitar and electric guitar, ukulele, drums are parodies/interpretations of the original songs. You may use it for private study, scholarship, research or language learning purposes only