» » »

Buddy Holly - Tell Me How Tabs

Artists:  A B C D E F G H I J K L M N O P Q R S T U V W X Y Z # 

Tell Me How Tabs

(ver. 1) Click to play this song!
Buddy Holly
 Rating:
4.8/5 (21 vote)

 Tell Me How lessons Tabs too difficult? Try these video lessons and learn fast
 
                 Intro
  Q=156
  A                 E7                A                 E7
 4/4
  Gtr I (El. Gtr.)
  E E E E E E E E   E E E E E E Q     E E E E E E E E   E E E E E E Q
|-0-0-0-0-0-0-0-0-|-0-0-0-0-0-0-0---|-0-0-0-0-0-0-0-0-|-0-0-0-0-0-0-0---||
|-2-2-2-2-2-2-2-2-|-0-0-0-0-0-3-0---|-2-2-2-2-2-2-2-2-|-0-0-0-0-0-3-0---||
|-2-2-2-2-2-2-2-2-|-1-1-1-1-1-0-1---|-2-2-2-2-2-2-2-2-|-1-1-1-1-1-0-1---||
|-----------------|-----------------|-----------------|-----------------||
|-----------------|-----------------|-----------------|-----------------||
|-----------------|-----------------|-----------------|-----------------||
|
| Gtr II (Ac. Gtr.)
| E E E E E E E E   E E E E E E E E   E E E E E E E E   E E E E E E E E
|-0-0-0-0-0-0-0-0-|-0-0-0-0-0-0-0-0-|-0-0-0-0-0-0-0-0-|-0-0-0-0-0-0-0-0-||
|-2-2-2-2-2-2-2-2-|-0-0-0-0-0-0-0-0-|-2-2-2-2-2-2-2-2-|-0-0-0-0-0-0-0-0-||
|-2-2-2-2-2-2-2-2-|-1-1-1-1-1-1-1-1-|-2-2-2-2-2-2-2-2-|-1-1-1-1-1-1-1-1-||
|-2-2-2-2-2-2-2-2-|-0-0-0-0-0-0-0-0-|-2-2-2-2-2-2-2-2-|-0-0-0-0-0-0-0-0-||
|-0-0-0-0-0-0-0-0-|-2-2-2-2-2-2-2-2-|-0-0-0-0-0-0-0-0-|-2-2-2-2-2-2-2-2-||
|-----------------|-0-0-0-0-0-0-0-0-|-----------------|-0-0-0-0-0-0-0-0-||


 1st Verse
  A                   E
  PM----------------------------------------------------------------------|
  E E E E  E  E E E   E E E E E E E E   E E E E  E  E E E   E E E E E E E E
|-------------------|-----------------|-------------------|------------------|
|-------------------|-----------------|-------------------|------------------|
|-------------------|-----------------|-------------------|------------------|
|-2-2-2-2--2--2-2-2-|-----------------|-2-2-2-2--2--2-2-2-|------------------|
|-0-0-0-0--0--0-0-0-|-2-2-2-2-2-2-2-2-|-0-0-0-0--0--0-0-0-|-2-2-2-2-2-2-2-2--|
|-------------------|-0-0-0-0-0-0-0-0-|-------------------|-0-0-0-0-0-0-0-0--|
|
| E E E E +E  E E E   E E E E E E E E   E E E E +E  E E E   E E E E E E E E
|-0-0-0-0-(0)-0-0-0-|-0-0-0-0-0-0-0-0-|-0-0-0-0-(0)-0-0-0-|-0-0-0-0-0-0-0-0--|
|-2-2-2-2-(2)-2-2-2-|-0-0-0-0-0-0-0-0-|-2-2-2-2-(2)-2-2-2-|-0-0-0-0-0-0-0-0--|
|-2-2-2-2-(2)-2-2-2-|-1-1-1-1-1-1-1-1-|-2-2-2-2-(2)-2-2-2-|-1-1-1-1-1-1-1-1--|
|-2-2-2-2-(2)-2-2-2-|-2-2-2-2-2-2-2-2-|-2-2-2-2-(2)-2-2-2-|-2-2-2-2-2-2-2-2--|
|-0-0-0-0-(0)-0-0-0-|-2-2-2-2-2-2-2-2-|-0-0-0-0-(0)-0-0-0-|-2-2-2-2-2-2-2-2--|
|-------------------|-0-0-0-0-0-0-0-0-|-------------------|-0-0-0-0-0-0-0-0--|


  A                   D                 A       E
  PM--------------------------------------------------|
  E E E E  E  E E E   E E E E E E E E   E E E E E E E E   e E E E E E E E
|-------------------|-----------------|-----------------|------------------||
|-------------------|-----------------|-----------------|------------------||
|-------------------|-2-2-2-2-2-2-2-2-|-----------------|------------------||
|-2-2-2-2--2--2-2-2-|-0-0-0-0-0-0-0-0-|-2-2-2-2---------|-2----------------||
|-0-0-0-0--0--0-0-0-|-----------------|-0-0-0-0-2-2-2-2-|-0----------------||
|-------------------|-----------------|---------0-0-0-0-|---0-0-0-0-0-2-4--||
|
| E E E E +E  E E E   E E E E E E E E   E E Q   E E Q     e E Q   H
|-0-0-0-0-(0)-0-0-0-|-2-2-2-2-2-2-2-2-|-0-0-0---0-0-0---|-0----------------||
|-2-2-2-2-(2)-2-2-2-|-3-3-3-3-3-3-3-3-|-2-2-2---0-0-0---|-2----------------||
|-2-2-2-2-(2)-2-2-2-|-2-2-2-2-2-2-2-2-|-2-2-2---1-1-1---|-2----------------||
|-2-2-2-2-(2)-2-2-2-|-0-0-0-0-0-0-0-0-|-2-2-2---2-2-2---|-2----------------||
|-0-0-0-0-(0)-0-0-0-|-----------------|-0-0-0---2-2-2---|-0----------------||
|-------------------|-----------------|---------0-0-0---|------------------||


 2nd Verse
  A                   E                 A                   E
  PM----------------------------------------------------------------------|
  E E E E  E  E E E   E E E E E E E E   E E E E  E  E E E   E E E E E E E E
|-------------------|-----------------|-------------------|------------------|
|-------------------|-----------------|-------------------|------------------|
|-------------------|-----------------|-------------------|------------------|
|-2-2-2-2--2--2-2-2-|-----------------|-2-2-2-2--2--2-2-2-|------------------|
|-0-0-0-0--0--0-0-0-|-2-2-2-2-2-2-2-2-|-0-0-0-0--0--0-0-0-|-2-2-2-2-2-2-2-2--|
|-------------------|-0-0-0-0-0-0-0-0-|-------------------|-0-0-0-0-0-0-0-0--|
|
| E E E E +E  E E E   E E E E E E E E   E E E E +E  E E E   E E E E E E E E
|-0-0-0-0-(0)-0-0-0-|-0-0-0-0-0-0-0-0-|-0-0-0-0-(0)-0-0-0-|-0-0-0-0-0-0-0-0--|
|-2-2-2-2-(2)-2-2-2-|-0-0-0-0-0-0-0-0-|-2-2-2-2-(2)-2-2-2-|-0-0-0-0-0-0-0-0--|
|-2-2-2-2-(2)-2-2-2-|-1-1-1-1-1-1-1-1-|-2-2-2-2-(2)-2-2-2-|-1-1-1-1-1-1-1-1--|
|-2-2-2-2-(2)-2-2-2-|-2-2-2-2-2-2-2-2-|-2-2-2-2-(2)-2-2-2-|-2-2-2-2-2-2-2-2--|
|-0-0-0-0-(0)-0-0-0-|-2-2-2-2-2-2-2-2-|-0-0-0-0-(0)-0-0-0-|-2-2-2-2-2-2-2-2--|
|-------------------|-0-0-0-0-0-0-0-0-|-------------------|-0-0-0-0-0-0-0-0--|


  A                   D                 A       E         A
  PM----------------------------------------------------------------------|
  E E E E  E  E E E   E E E E E E E E   E E E E E E E E   E E E E  E  E E E
|-------------------|-----------------|-----------------|--------------------||
|-------------------|-----------------|-----------------|--------------------||
|-------------------|-2-2-2-2-2-2-2-2-|-----------------|--------------------||
|-2-2-2-2--2--2-2-2-|-0-0-0-0-0-0-0-0-|-2-2-2-2---------|-2-2-2-2--2--2-2-2--||
|-0-0-0-0--0--0-0-0-|-----------------|-0-0-0-0-2-2-2-2-|-0-0-0-0--0--0-0-0--||
|-------------------|-----------------|---------0-0-0-0-|--------------------||
|
| E E E E +E  E E E   E E E E E E E E   E E Q   E E Q     Q   E E +E  E E E
|-0-0-0-0-(0)-0-0-0-|-2-2-2-2-2-2-2-2-|-0-0-0---0-0-0---|-0---0-0-(0)-0-0-0--||
|-2-2-2-2-(2)-2-2-2-|-3-3-3-3-3-3-3-3-|-2-2-2---0-0-0---|-2---2-2-(2)-2-2-2--||
|-2-2-2-2-(2)-2-2-2-|-2-2-2-2-2-2-2-2-|-2-2-2---1-1-1---|-2---2-2-(2)-2-2-2--||
|-2-2-2-2-(2)-2-2-2-|-0-0-0-0-0-0-0-0-|-2-2-2---2-2-2---|-2---2-2-(2)-2-2-2--||
|-0-0-0-0-(0)-0-0-0-|-----------------|-0-0-0---2-2-2---|-0---0-0-(0)-0-0-0--||
|-------------------|-----------------|---------0-0-0---|--------------------||


   Bridge
    F#m
     PM--------------------------------------------------
     E  E  E  E  E   E  E  E    E  E  E  E  E   E  E  E
||---------------------------|--------------------------|
||o--------------------------|--------------------------|
||---------------------------|--------------------------|
||--11-11-11-11-11--11-11-11-|-11-11-11-11-11--11-11-11-|
||o--9--9--9--9--9---9--9--9-|--9--9--9--9--9---9--9--9-|
||---------------------------|--------------------------|
|
|    E  E  E  E +E   E  E  E    E  E  E  E +E   E  E  E
||---2--2--2--2-(2)--2--2--2-|--2--2--2--2-(2)--2--2--2-|
||o--2--2--2--2-(2)--2--2--2-|--2--2--2--2-(2)--2--2--2-|
||---2--2--2--2-(2)--2--2--2-|--2--2--2--2-(2)--2--2--2-|
||---4--4--4--4-(4)--4--4--4-|--4--4--4--4-(4)--4--4--4-|
||o--4--4--4--4-(4)--4--4--4-|--4--4--4--4-(4)--4--4--4-|
||---2--2--2--2-(2)--2--2--2-|--2--2--2--2-(2)--2--2--2-|


  E                   A
 -----------------------------------|
  E E E E  E  E E E   E E E E E E E E
|-------------------|-----------------|
|-------------------|-----------------|
|-------------------|-----------------|
|-9-9-9-9--9--9-9-9-|-----------------|
|-7-7-7-7--7--7-7-7-|-7-7-7-7-7-7-7-7-|
|-------------------|-5-5-5-5-5-5-5-5-|
|
| E E E E +E  E E E   E E E E E E E E
|-0-0-0-0-(0)-0-0-0-|-0-0-0-0-0-0-0-0-|
|-0-0-0-0-(0)-0-0-0-|-2-2-2-2-2-2-2-2-|
|-1-1-1-1-(1)-1-1-1-|-2-2-2-2-2-2-2-2-|
|-2-2-2-2-(2)-2-2-2-|-2-2-2-2-2-2-2-2-|
|-2-2-2-2-(2)-2-2-2-|-0-0-0-0-0-0-0-0-|
|-0-0-0-0-(0)-0-0-0-|-----------------|


  F#m
   PM--------------------------------------------------
   E  E  E  E  E   E  E  E    E  E  E  E  E   E  E  E
|--------------------------|--------------------------|
|--------------------------|--------------------------|
|--------------------------|--------------------------|
|-11-11-11-11-11--11-11-11-|-11-11-11-11-11--11-11-11-|
|--9--9--9--9--9---9--9--9-|--9--9--9--9--9---9--9--9-|
|--------------------------|--------------------------|
|
|  E  E  E  E +E   E  E  E    E  E  E  E +E   E  E  E
|--2--2--2--2-(2)--2--2--2-|--2--2--2--2-(2)--2--2--2-|
|--2--2--2--2-(2)--2--2--2-|--2--2--2--2-(2)--2--2--2-|
|--2--2--2--2-(2)--2--2--2-|--2--2--2--2-(2)--2--2--2-|
|--4--4--4--4-(4)--4--4--4-|--4--4--4--4-(4)--4--4--4-|
|--4--4--4--4-(4)--4--4--4-|--4--4--4--4-(4)--4--4--4-|
|--2--2--2--2-(2)--2--2--2-|--2--2--2--2-(2)--2--2--2-|


  D                 E
 ---------------|
  E E E E E E E E   E E E E E E E E
|-----------------|-------0-0--------||
|-----------------|-x-0-0-0-0-3-2-0--||
|-----------------|-x-1-1------------||
|-7-7-7-7-7-7-7-7-|------------------||
|-5-5-5-5-5-5-5-5-|------------------||
|-----------------|------------------||
|
| E E E E E E E E   E E E E E E E E
|-2-2-2-2-2-2-2-2-|-0-0-0-0-0-0-0-0--||
|-3-3-3-3-3-3-3-3-|-0-0-0-0-0-0-0-0--||
|-2-2-2-2-2-2-2-2-|-1-1-1-1-1-1-1-1--||
|-0-0-0-0-0-0-0-0-|-2-2-2-2-2-2-2-2--||
|-----------------|-2-2-2-2-2-2-2-2--||
|-----------------|-0-0-0-0-0-0-0-0--||


 3rd & 4th Verses
  A                   E                 A                   E
  PM----------------------------------------------------------------------|
  E E E E  E  E E E   E E E E E E E E   E E E E  E  E E E   E E E E E E E E
|-------------------|-----------------|-------------------|------------------|
|-------------------|-----------------|-------------------|------------------|
|-------------------|-----------------|-------------------|------------------|
|-2-2-2-2--2--2-2-2-|-----------------|-2-2-2-2--2--2-2-2-|------------------|
|-0-0-0-0--0--0-0-0-|-2-2-2-2-2-2-2-2-|-0-0-0-0--0--0-0-0-|-2-2-2-2-2-2-2-2--|
|-------------------|-0-0-0-0-0-0-0-0-|-------------------|-0-0-0-0-0-0-0-0--|
|
| E E E E +E  E E E   E E E E E E E E   E E E E +E  E E E   E E E E E E E E
|-0-0-0-0-(0)-0-0-0-|-0-0-0-0-0-0-0-0-|-0-0-0-0-(0)-0-0-0-|-0-0-0-0-0-0-0-0--|
|-2-2-2-2-(2)-2-2-2-|-0-0-0-0-0-0-0-0-|-2-2-2-2-(2)-2-2-2-|-0-0-0-0-0-0-0-0--|
|-2-2-2-2-(2)-2-2-2-|-1-1-1-1-1-1-1-1-|-2-2-2-2-(2)-2-2-2-|-1-1-1-1-1-1-1-1--|
|-2-2-2-2-(2)-2-2-2-|-2-2-2-2-2-2-2-2-|-2-2-2-2-(2)-2-2-2-|-2-2-2-2-2-2-2-2--|
|-0-0-0-0-(0)-0-0-0-|-2-2-2-2-2-2-2-2-|-0-0-0-0-(0)-0-0-0-|-2-2-2-2-2-2-2-2--|
|-------------------|-0-0-0-0-0-0-0-0-|-------------------|-0-0-0-0-0-0-0-0--|


                                                         1.
  A                   D                 A       E         A
  PM--------------------------------------------------|     PM----------|
  E E E E  E  E E E   E E E E E E E E   E E E E E E E E   e E E E E E E E
|-------------------|-----------------|-----------------|------------------||
|-------------------|-----------------|-----------------|------------------||
|-------------------|-2-2-2-2-2-2-2-2-|-----------------|------------------||
|-2-2-2-2--2--2-2-2-|-0-0-0-0-0-0-0-0-|-2-2-2-2---------|-2----------------||
|-0-0-0-0--0--0-0-0-|-----------------|-0-0-0-0-2-2-2-2-|-0-2-2-2-2-2-2-2--||
|-------------------|-----------------|---------0-0-0-0-|---0-0-0-0-0-0-0--||
|
| E E E E +E  E E E   E E E E E E E E   E E Q   E E Q     e E Q   H
|-0-0-0-0-(0)-0-0-0-|-2-2-2-2-2-2-2-2-|-0-0-0---0-0-0---|-0----------------||
|-2-2-2-2-(2)-2-2-2-|-3-3-3-3-3-3-3-3-|-2-2-2---0-0-0---|-2----------------||
|-2-2-2-2-(2)-2-2-2-|-2-2-2-2-2-2-2-2-|-2-2-2---1-1-1---|-2----------------||
|-2-2-2-2-(2)-2-2-2-|-0-0-0-0-0-0-0-0-|-2-2-2---2-2-2---|-2----------------||
|-0-0-0-0-(0)-0-0-0-|-----------------|-0-0-0---2-2-2---|-0----------------||
|-------------------|-----------------|---------0-0-0---|------------------||


 Guitar Solo
  A                   E                 A                   E
  E E E E  E  E E E   E E E E E E E E   E E E E  E  E E E   E E E E E E E E
|-------------------|-----------------|-------------------|------------------|
|-------------------|-----------------|-------------------|------------------|
|-------------------|-----------------|-------------------|------------------|
|-2-2-2-2--2--------|-----------------|-2-2-2-2--2--------|------------------|
|-0-0-0-0--0--4-2-0-|-2-2-2-2-2-------|-0-0-0-0--0--4-2-0-|-2-2-2-2-2--------|
|-------------------|-0-0-0-0-0-4-2-0-|-------------------|-0-0-0-0-0-4-2-0--|
|
| E E E E +E  E E E   E E E E E E E E   E E E E +E  E E E   E E E E E E E E
|-0-0-0-0-(0)-0-0-0-|-0-0-0-0-0-0-0-0-|-0-0-0-0-(0)-0-0-0-|-0-0-0-0-0-0-0-0--|
|-2-2-2-2-(2)-2-2-2-|-0-0-0-0-0-0-0-0-|-2-2-2-2-(2)-2-2-2-|-0-0-0-0-0-0-0-0--|
|-2-2-2-2-(2)-2-2-2-|-1-1-1-1-1-1-1-1-|-2-2-2-2-(2)-2-2-2-|-1-1-1-1-1-1-1-1--|
|-2-2-2-2-(2)-2-2-2-|-2-2-2-2-2-2-2-2-|-2-2-2-2-(2)-2-2-2-|-2-2-2-2-2-2-2-2--|
|-0-0-0-0-(0)-0-0-0-|-2-2-2-2-2-2-2-2-|-0-0-0-0-(0)-0-0-0-|-2-2-2-2-2-2-2-2--|
|-------------------|-0-0-0-0-0-0-0-0-|-------------------|-0-0-0-0-0-0-0-0--|


  A                   D                     A       E         A
  E E E E  E  E E E   E E E a E +E  E Q     E E E E E E E E   e E E E E E Q
|-------------------|---------------------|-----------------|-----------------|
|-------------------|---------------------|-----------------|-----------------|
|-------------------|---------------------|-----------------|-----------------|
|-2-2-2-2--2--------|-------5-7-(7)-7-7---|-2-2-2-2---------|-2-----------x\--|
|-0-0-0-0--0--4-2-0-|-5-5-5-3s5-(5)-5-5---|-0-0-0-0-2-2-2-2-|-0-----------x---|
|-------------------|---------------------|---------0-0-0-0-|---0-0-0-0-0-----|
|
| E E E E +E  E E E   E E E   E  E  E E E   E E Q   E E Q     e E Q   H
|-0-0-0-0-(0)-0-0-0-|-2-2-2---2--2--2-2-2-|-0-0-0---0-0-0---|-0---------------|
|-2-2-2-2-(2)-2-2-2-|-3-3-3---3--3--3-3-3-|-2-2-2---0-0-0---|-2---------------|
|-2-2-2-2-(2)-2-2-2-|-2-2-2---2--2--2-2-2-|-2-2-2---1-1-1---|-2---------------|
|-2-2-2-2-(2)-2-2-2-|-0-0-0---0--0--0-0-0-|-2-2-2---2-2-2---|-2---------------|
|-0-0-0-0-(0)-0-0-0-|---------------------|-0-0-0---2-2-2---|-0---------------|
|-------------------|---------------------|---------0-0-0---|-----------------|


  A                   E                   A
  E E E E  E  E E E   E E E E +E  E Q     E E E E +E  E Q
|-------------------|-------------------|-------------------|
|-------------------|-------------------|-------------------|
|-------------------|-------------------|-------------------|
|-2-2-2-2--2--------|-------------------|-2-2-2-------------|
|-0-0-0-0--0--4-2-0-|-2-2-2-------------|-0-0-0-4-(4)-2-0---|
|-------------------|-0-0-0-4-(4)-2-0---|-------------------|
|
| E E E E +E  E E E   E E E E  E  E E E   E E E E +E  E E E
|-0-0-0-0-(0)-0-0-0-|-0-0-0-0--0--0-0-0-|-0-0-0-0-(0)-0-0-0-|
|-2-2-2-2-(2)-2-2-2-|-0-0-0-0--0--0-0-0-|-2-2-2-2-(2)-2-2-2-|
|-2-2-2-2-(2)-2-2-2-|-1-1-1-1--1--1-1-1-|-2-2-2-2-(2)-2-2-2-|
|-2-2-2-2-(2)-2-2-2-|-2-2-2-2--2--2-2-2-|-2-2-2-2-(2)-2-2-2-|
|-0-0-0-0-(0)-0-0-0-|-2-2-2-2--2--2-2-2-|-0-0-0-0-(0)-0-0-0-|
|-------------------|-0-0-0-0--0--0-0-0-|-------------------|


  E                   A
  E E E E +E  E Q     E E E E +E  E Q
|-------------------|---------------------|
|-------------------|---------------------|
|-------------------|---------------------|
|-------------------|-2-2-2---------------|
|-2-2-2-------------|-0-0-0-4-(4)-2-0-----|
|-0-0-0-4-(4)-2-0---|---------------------|
|
| E E E E  E  E E E   E E E E +E  E E E
|-0-0-0-0--0--0-0-0-|-0-0-0-0-(0)-0-0-0---|
|-0-0-0-0--0--0-0-0-|-2-2-2-2-(2)-2-2-2---|
|-1-1-1-1--1--1-1-1-|-2-2-2-2-(2)-2-2-2---|
|-2-2-2-2--2--2-2-2-|-2-2-2-2-(2)-2-2-2---|
|-2-2-2-2--2--2-2-2-|-0-0-0-0-(0)-0-0-0---|
|-0-0-0-0--0--0-0-0-|---------------------|


                                                        2.
  D                 A       E         A                  A
  E E E E E E E E   E E E E E E E E   E E E E +H         e E E E E E E E
|-----------------|-----------------|-----------------||------------------||
|-----------------|-----------------|----------------o||------------------||
|-2-2-2-2-2-2-2-2-|-----------------|-----------------||------------------||
|-0-0-0-0-0-0-0-0-|-2-2-2-2---------|-2-2-2-2-(2)-----||-2----------------||
|-----------------|-0-0-0-0-2-2-2-2-|-0-0-0-0-(0)----o||-0----------------||
|-----------------|---------0-0-0-0-|-----------------||---0-0-0-0-0-2-4--||
|
| E E E E E E E E   E E E E E E E E   E E E E +H         e E Q   H
|-2-2-2-2-2-2-2-2-|-0-0-0-0-0-0-0-0-|-0-0-0-0-(0)-----||-0----------------||
|-3-3-3-3-3-3-3-3-|-2-2-2-2-0-0-0-0-|-2-2-2-2-(2)----o||-2----------------||
|-2-2-2-2-2-2-2-2-|-2-2-2-2-1-1-1-1-|-2-2-2-2-(2)-----||-2----------------||
|-0-0-0-0-0-0-0-0-|-2-2-2-2-2-2-2-2-|-2-2-2-2-(2)-----||-2----------------||
|-----------------|-0-0-0-0-2-2-2-2-|-0-0-0-0-(0)----o||-0----------------||
|-----------------|---------0-0-0-0-|-----------------||------------------||


  A                   D                 A       E         A
  PM--------------------------------------------------------------------|
  E E E E  E  E E E   E E E E E E E E   E E E E E E E E   E E E E E E E E
|-------------------|-----------------|-----------------|------------------||
|-------------------|-----------------|-----------------|------------------||
|-------------------|-2-2-2-2-2-2-2-2-|-----------------|------------------||
|-2-2-2-2--2--2-2-2-|-0-0-0-0-0-0-0-0-|-2-2-2-2---------|-2-2-2-2-2-2-2-2--||
|-0-0-0-0--0--0-0-0-|-----------------|-0-0-0-0-2-2-2-2-|-0-0-0-0-0-0-0-0--||
|-------------------|-----------------|---------0-0-0-0-|------------------||
|
| E E E E +E  E E E   E E E E E E E E   E E E E E E E E   E E E E E E E E
|-0-0-0-0-(0)-0-0-0-|-2-2-2-2-2-2-2-2-|-0-0-0-0-0-0-0-0-|-0-0-0-0-0-0-0-0--||
|-2-2-2-2-(2)-2-2-2-|-3-3-3-3-3-3-3-3-|-2-2-2-2-0-0-0-0-|-2-2-2-2-2-2-2-2--||
|-2-2-2-2-(2)-2-2-2-|-2-2-2-2-2-2-2-2-|-2-2-2-2-1-1-1-1-|-2-2-2-2-2-2-2-2--||
|-2-2-2-2-(2)-2-2-2-|-0-0-0-0-0-0-0-0-|-2-2-2-2-2-2-2-2-|-2-2-2-2-2-2-2-2--||
|-0-0-0-0-(0)-0-0-0-|-----------------|-0-0-0-0-2-2-2-2-|-0-0-0-0-0-0-0-0--||
|-------------------|-----------------|---------0-0-0-0-|------------------||


 Outro
  E E E E E E E E   E E E E E E E E
|-2-2-2-2-2-2-2-2-|-0-0-0-0-0-0-0-0-|
|-3-3-3-3-3-3-3-3-|-2-2-2-2-2-2-2-2-|
|-2-2-2-2-2-2-2-2-|-2-2-2-2-2-2-2-2-|
|-----------------|-----------------|
|-----------------|-----------------|
|-----------------|-----------------|
|
| E E E E E E E E   E E E E E E E E
|-2-2-2-2-2-2-2-2-|-0-0-0-0-0-0-0-0-|
|-3-3-3-3-3-3-3-3-|-2-2-2-2-2-2-2-2-|
|-2-2-2-2-2-2-2-2-|-2-2-2-2-2-2-2-2-|
|-0-0-0-0-0-0-0-0-|-2-2-2-2-2-2-2-2-|
|-----------------|-0-0-0-0-0-0-0-0-|
|-----------------|-----------------|


                               TP    TP
  E E E E E E E E   E E E E Q  Q    +W
|-0-0-0-0-0-0-0-0-|-0-0-0-0----0--|-(0)----*|
|-0-0-0-0-0-0-0-0-|-2-0-0-2----2--|-(2)----*|
|-1-1-1-1-1-1-1-1-|-2-1-1-2----2--|-(2)----*|
|-----------------|---------------|--------*|
|-----------------|---------------|--------*|
|-----------------|---------------|--------*|
|
|                                    TP
| E E E E E E E E   E E E E Q  Q    +W
|-0-0-0-0-0-0-0-0-|-0-x-x-0----0--|-(0)----*|
|-0-0-0-0-0-0-0-0-|-2-x-x-2----2--|-(2)----*|
|-1-1-1-1-1-1-1-1-|-2-x-x-2----2--|-(2)----*|
|-2-2-2-2-2-2-2-2-|-2-x-x-2----2--|-(2)----*|
|-2-2-2-2-2-2-2-2-|-0-x-x-0----0--|-(0)----*|
|-0-0-0-0-0-0-0-0-|---------------|--------*|            
Submit corrections


        Tell Me How lessons Hard to play? Try these video lessons and learn fast Tell Me How lessons
        
↑ Back to top | Tablatures and chords for acoustic guitar and electric guitar, ukulele, drums are parodies/interpretations of the original songs. You may use it for private study, scholarship, research or language learning purposes only