» » »

Buddy Holly - Its So Easy Tabs

Artists:  A B C D E F G H I J K L M N O P Q R S T U V W X Y Z # 

Its So Easy Tabs

(ver. 1) Click to play this song!
Buddy Holly
 Rating:
4.3/5 (24 votes)

 Its So Easy  lessons Tabs too difficult? Try these video lessons and learn fast
 
                 Chorus
  Q=136
  N.C.           A     E      D    E          A    D
 4/4
  Gtr I (Clean El. Gtr.)
  H    E E E E   Q  Q  H      W               W
|--------------|------------|---------------|-----------|
|--------------|------------|---------------|-----------|
|--------------|------------|---------------|-----------|
|--------------|------------|---------------|-----------|
|--------------|-0----------|---------------|-----------|
|--------0-2-4-|------------|---------------|-----------|
|
| Gtr II (Ac. Gtr.)
| W              H     H      Q.   E +H       H    H
|--------------|-0-----0----|-2----0-(0)----|-0----2----|
|--------------|-2-----0----|-3----0-(0)----|-2----3----|
|--------------|-2-----1----|-2----1-(1)----|-2----2----|
|--------------|-2-----2----|-0----2-(2)----|-2----0----|
|--------------|-0-----2----|------2-(2)----|-0---------|
|--------------|-------0----|------0-(0)----|-----------|


                       Interlude
  E    A                A         E
  H       E  a E E E    E S S E E E S S E E
|------------------5-||-8-8p7p5---0-0-0-----|
|------------3s5-7---||---------8-5-----5-5-|
|--------------------||---------------------|
|--------------------||---------------------|
|--------------------||---------------------|
|--------------------||---------------------|
|
| Q.   E +H             E E   E E E E   E E
|-0----0-(0)---------||-0-0---0-0-0-0---0-0-|
|-0----2-(2)---------||-2-2---2-2-0-0---0-0-|
|-1----2-(2)---------||-2-2---2-2-1-1---1-1-|
|-2----2-(2)---------||-2-2---2-2-2-2---2-2-|
|-2----0-(0)---------||-0-0---0-0-2-2---2-2-|
|-0------------------||-----------0-0---0-0-|


  D     E           A       D
  E E E E E E E E   E E E E E E E E
|-----------5-----|-8---5-----------|
|-7-7-7-9---5-7---|-7---5---7-6-7-8-|
|-7-7-7-9---------|---------7-6-7-8-|
|-----------------|-----------------|
|-----------------|-----------------|
|-----------------|-----------------|
|
| E E E E E E E E   E E E E E E E E
|-2-2-2-0-0-0-0-0-|-0-0-0-0-2-2-2-2-|
|-3-3-3-0-0-0-0-0-|-2-2-2-2-3-3-3-3-|
|-2-2-2-1-1-1-1-1-|-2-2-2-2-2-2-2-2-|
|-0-0-0-2-2-2-2-2-|-2-2-2-2-0-0-0-0-|
|-------2-2-2-2-2-|-0-0-0-0---------|
|-------0-0-0-0-0-|-----------------|


                          1st & 2nd Verses
                        $
  E           A            A       E
                           Gtr III (El. Gtr. muted)
                           PM-------------------
  S E   S E a E E E E E    E S S E E E S S E E
|-----------------------||---------------------|
|-9-----7---4s5---------||-------7-5-------9---|
|-9-----7---5s6-6-6-6-6-||-----6-6-6-----9---9-|
|---------------7-7-7-7-||-7-7-------9-9-------|
|-----------------------||---------------------|
|-----------------------||---------------------|
|
| E   S S E   E E E E E    H         H
|-0---0-0-0---0-0-0-0-0-||-0---------0---------|
|-0---0-0-0---2-2-2-2-2-||-2---------0---------|
|-1---1-1-1---2-2-2-2-2-||-2---------1---------|
|-2---2-2-2---2-2-2-2-2-||-2---------2---------|
|-2---2-2-2---0-0-0-0-0-||-0---------2---------|
|-0---0-0-0-------------||-----------0---------|


  D        E
 ----------------------------------------|
  E  S S E E  E  E E E   E S S E E E E E E
|----------------------|--------------------|
|--------7-------------|-------7-5----------|
|------7---9-----9-9-9-|-----6-6-6-7-7-7-7--|
|-7--7-----------9-9-9-|-7-7-------7-7-7-7--|
|----------------------|--------------------|
|----------------------|--------------------|
|
| Q.       E +H          H         H
|-2--------0-(0)-------|-0---------2--------|
|-3--------0-(0)-------|-2---------3--------|
|-2--------1-(1)-------|-2---------2--------|
|-0--------2-(2)-------|-2---------0--------|
|----------2-(2)-------|-0------------------|
|----------0-(0)-------|--------------------|


                       Pre-Chorus
                        D
  PM----------------------------------------------------------------|
  E  E E E  E  E E E    E S S  E E E S S  E E   E S S  E E E S S  E E
|--------------------||-----------------------|------------------------|
|--------------------||-----------------------|------------------------|
|-9--9-9-6-----6-6-6-||-7-7-7------7-7-7------|-7-7-7------7-7-7-------|
|-9--9-9-7-----7-7-7-||-7-7-7------7-7-7------|-7-7-7------7-7-7-------|
|--------------------||-------10-7-------10-7-|-------10-7-------10-7--|
|--------------------||-----------------------|------------------------|
|
| Q.     E +E  E E E    E E    E E E E    E E   E E    E E E E    E E
|-0------0-(0)-0-0-0-||-2-2----2-2-2-2----2-2-|-2-2----2-2-2-2----2-2--|
|-0------2-(2)-2-2-2-||-3-3----3-3-3-3----3-3-|-3-3----3-3-3-3----3-3--|
|-1------2-(2)-2-2-2-||-2-2----2-2-2-2----2-2-|-2-2----2-2-2-2----2-2--|
|-2------2-(2)-2-2-2-||-0-0----0-0-0-0----0-0-|-0-0----0-0-0-0----0-0--|
|-2------0-(0)-0-0-0-||-----------------------|------------------------|
|-0------------------||-----------------------|------------------------|


  A                                           D
  PM--------------------------------------------------------------|
  E S S E E E S S E E   E S S E E E S S E E   E S S  E E E S S  E E
|---------------------|---------------------|-----------------------|
|-5-5-5-----5-5-5-----|-5-5-5-----5-5-5-----|-----------------------|
|-6-6-6-----6-6-6-----|-6-6-6-----6-6-6-----|-7-7-7------7-7-7------|
|-------9-7-------9-7-|-------9-7-------9-7-|-7-7-7------7-7-7------|
|---------------------|---------------------|-------10-7-------10-7-|
|---------------------|---------------------|-----------------------|
|
| E E   E E E E   E E   E E   E E E E   E E   E E    E E E E    E E
|-0-0---0-0-0-0---0-0-|-0-0---0-0-0-0---0-0-|-2-2----2-2-2-2----2-2-|
|-2-2---2-2-2-2---2-2-|-2-2---2-2-2-2---2-2-|-3-3----3-3-3-3----3-3-|
|-2-2---2-2-2-2---2-2-|-2-2---2-2-2-2---2-2-|-2-2----2-2-2-2----2-2-|
|-2-2---2-2-2-2---2-2-|-2-2---2-2-2-2---2-2-|-0-0----0-0-0-0----0-0-|
|-0-0---0-0-0-0---0-0-|-0-0---0-0-0-0---0-0-|-----------------------|
|---------------------|---------------------|-----------------------|


                                                              Chorus
                          B7                E                  A     E
                                                               Gtr I Gtr III
  PM------------------------------------------------------|          PM----|
  E S S  E E E S S  E E   E E E E E E E E   E E E E E E E E    Q  Q  E E E E
|-----------------------|-----------------|-----------------||----------------|
|-----------------------|-----------------|-----------------||----------------|
|-7-7-7------7-7-7------|-8-8-8-8-8-8-8-8-|-----------------||-------9-9-9-9--|
|-7-7-7------7-7-7------|-9-9-9-9-9-9-9-9-|-----------------||-------9-9-9-9--|
|-------10-7-------10-7-|-----------------|-7-7-5-5-4-4-----||----7-----------|
|-----------------------|-----------------|-------------7-7-||-5--------------|
|
| E E    E E E E    E E   E E E E E E E E   E E E E E E E E    H     H
|-2-2----2-2-2-2----2-2-|-2-2-2-2-2-2-2-2-|-0-0-0-0-0-0-0-0-||-0-----0--------|
|-3-3----3-3-3-3----3-3-|-0-0-0-0-0-0-0-0-|-0-0-0-0-0-0-0-0-||-2-----0--------|
|-2-2----2-2-2-2----2-2-|-2-2-2-2-2-2-2-2-|-1-1-1-1-1-1-1-1-||-2-----1--------|
|-0-0----0-0-0-0----0-0-|-1-1-1-1-1-1-1-1-|-2-2-2-2-2-2-2-2-||-2-----2--------|
|-----------------------|-2-2-2-2-2-2-2-2-|-2-2-2-2-2-2-2-2-||-0-----2--------|
|-----------------------|-----------------|-0-0-0-0-0-0-0-0-||-------0--------|


  D      E               A       D
  PM----------------------------------------
  E  S S E E  E  E E E   E S S E E E E E E
|----------------------|-------------------|
|--------7-------------|-------7-5---------|
|------7---7-----9-9-9-|-----6-6-6-7-7-7-7-|
|-7--7-----------9-9-9-|-7-7-------7-7-7-7-|
|----------------------|-------------------|
|----------------------|-------------------|
|
| Q.       E +H          H         H
|-2--------0-(0)-------|-0---------2-------|
|-3--------0-(0)-------|-2---------3-------|
|-2--------1-(1)-------|-2---------2-------|
|-0--------2-(2)-------|-2---------0-------|
|----------2-(2)-------|-0-----------------|
|----------0-(0)-------|-------------------|


                          Interlude
                To Coda
  E      A                 A         A
               Gtr I
 --------|
  E  E E E  E  a E E E     E S S E E E E E E
|--------------------5--||-8-8p7p5---0-------|
|--------------3s5-7----||---------8-5-5-5-5-|
|-9--9-9-6--------------||-------------------|
|-9--9-9-7--------------||-------------------|
|-----------------------||-------------------|
|-----------------------||-------------------|
|
| Q.     E +H              E E   E E E E E E
|-0------0-(0)----------||-0-0---0-0-0-0-0-0-|
|-0------2-(2)----------||-2-2---2-2-0-0-0-0-|
|-1------2-(2)----------||-2-2---2-2-1-1-1-1-|
|-2------2-(2)----------||-2-2---2-2-2-2-2-2-|
|-2------0-(0)----------||-0-0---0-0-2-2-2-2-|
|-0---------------------||-----------0-0-0-0-|


  D     E           A       D
  E E E E E E E E   E E Q   E E E E
|---------------5-|-8---5-----------|
|-7-7-7-9---5-7---|-7---5---7-6-7-8-|
|-7-7-7-9---------|---------7-6-7-8-|
|-----------------|-----------------|
|-----------------|-----------------|
|-----------------|-----------------|
|
| E E E E E E E E   E E E E E E E E
|-2-2-2-0-0-0-0-0-|-0-0-0-0-2-2-2-2-|
|-3-3-3-0-0-0-0-0-|-2-2-2-2-3-3-3-3-|
|-2-2-2-1-1-1-1-1-|-2-2-2-2-2-2-2-2-|
|-0-0-0-2-2-2-2-2-|-2-2-2-2-0-0-0-0-|
|-------2-2-2-2-2-|-0-0-0-0---------|
|-------0-0-0-0-0-|-----------------|


                        Guitar Solo
  E         A              D
  S E   S E E E E Q      a  E  E  E  E  E  E  E  E
|---------------------||-9s10----------------------|
|-9-----7---5---------||------10----12-10----10----|
|-9-----7---6-6-------||---------11-------11----11-|
|-------------7-------||---------------------------|
|---------------------||---------------------------|
|---------------------||---------------------------|
|
|     PM
| S S S S E E E E E E       E  E  E  E  E  E  E  E
|-0-0-0-0-0-0-0-0-0-0-||----2--2--2--2--2--2--2--2-|
|-0-0-0-0-0-2-2-2-2-2-||----3--3--3--3--3--3--3--3-|
|-1-1-1-1-1-2-2-2-2-2-||----2--2--2--2--2--2--2--2-|
|-2-2-2-2-2-2-2-2-2-2-||----0--0--0--0--0--0--0--0-|
|-2-2-2-2-2-0-0-0-0-0-||---------------------------|
|-0-0-0-0-0-----------||---------------------------|


                                     A
   E     E     E  E  E  E  E     E    E  E  a  E  E  E  E  E  E
|-------------------12-------------|-------------14-12-------12-|
|-12b13-12b13-12-10----10-12b13-12-|-10-10-12s14-------13-14----|
|----------------------------------|----------------------------|
|----------------------------------|----------------------------|
|----------------------------------|----------------------------|
|----------------------------------|----------------------------|
|
|  E     E     E  E  E  E  E     E    E  E     E  E  E  E  E  E
|--2-----2-----2--2--2--2--2-----2-|--0--0-----0--0--0--0--0--0-|
|--3-----3-----3--3--3--3--3-----3-|--2--2-----2--2--2--2--2--2-|
|--2-----2-----2--2--2--2--2-----2-|--2--2-----2--2--2--2--2--2-|
|--0-----0-----0--0--0--0--0-----0-|--2--2-----2--2--2--2--2--2-|
|----------------------------------|--0--0-----0--0--0--0--0--0-|
|----------------------------------|----------------------------|


  A7                                 D
   E     E     E     E  E  E  E  E    E  E  E  E     +E   E  E E
|-14b15-14b15-14b15-14-12----------|-10--------------------------|
|-------------------------14-12-10-|----10----12b13-(12)-12-10---|
|----------------------------------|-------11--------------------|
|----------------------------------|-----------------------------|
|----------------------------------|-----------------------------|
|----------------------------------|-----------------------------|
|
|  E     E     E     E  E  E  E  E    E  E  E  E      E   E  E E
|--0-----0-----0-----0--0--0--0--0-|--2--2--2--2------2---2--2-2-|
|--2-----2-----2-----2--2--2--2--2-|--3--3--3--3------3---3--3-3-|
|--0-----0-----0-----0--0--0--0--0-|--2--2--2--2------2---2--2-2-|
|--2-----2-----2-----2--2--2--2--2-|--0--0--0--0------0---0--0-0-|
|--0-----0-----0-----0--0--0--0--0-|-----------------------------|
|----------------------------------|-----------------------------|


                        B7
  a E E E E E   E E E   E a E E E a  E E E E
|-----5-7-5-7b8-7-5---|----------------------|
|-5s7---------------7-|---------7-9s10-9-7---|
|---------------------|-------8--------------|
|---------------------|---5s9----------------|
|---------------------|----------------------|
|---------------------|----------------------|
|
|   E E E E E   E E E   E   E E E    E E E E
|---2-2-2-2-2---2-2-2-|-2---2-2-2----2-2-2-2-|
|---3-3-3-3-3---3-3-3-|-0---0-0-0----0-0-0-0-|
|---2-2-2-2-2---2-2-2-|-2---2-2-2----2-2-2-2-|
|---0-0-0-0-0---0-0-0-|-1---1-1-1----1-1-1-1-|
|---------------------|-2---2-2-2----2-2-2-2-|
|---------------------|----------------------|


                          Chorus
  E                        A         E
    Gtr III                Gtr I
    PM----------------|
  E S S E S S E S S E E    E a Q   E E E E E
|-----------------------||-----0--------------|
|-----------------------||---3s5---7-5-5-5-5--|
|-----------------------||-----------7-6-7-6--|
|-----------------------||--------------------|
|---7p0---5p0---4p0---2-||--------------------|
|-------0-----0-----0---||--------------------|
|
| Q     Q     H            Q     Q   E E Q
|-0---------------------||-0-----0---0-0-0----|
|-0---------------------||-2-----2---0-0-0----|
|-1---------------------||-2-----2---1-1-1----|
|-2---------------------||-2-----2---2-2-2----|
|-2---------------------||-0-----0---2-2-2----|
|-0---------------------||-----------0-0-0----|


                                                   D.S. al Coda &
  D       E             A      D         E         A
  Q     E E +E  E E E   E E Q  E E E E   S E   S E E  E  E E E
|---------------5-5-5-|-8---5----------|-------------------------||
|---------------5-7-5-|-7---5--7-6-7-8-|-9-----7---5-------------||
|-7-----8-9-(9)-------|--------7-6-7-8-|-9-----7---6--6--6-6-6---||
|-7-----8-9-(9)-------|----------------|--------------7--7-7-7---||
|---------------------|----------------|-------------------------||
|---------------------|----------------|-------------------------||
|
| E S S E E  E  E E E   Q   Q  E E Q     E   E   E E +E  E E E
|-2-2-2-2-0--0--0-0-0-|-0---0--2-2-2---|-0---0---0-0-(0)-0-0-0---||
|-3-3-3-3-0--0--0-0-0-|-2---2--3-3-3---|-0---0---0-2-(2)-2-2-2---||
|-2-2-2-2-1--1--1-1-1-|-2---2--2-2-2---|-1---1---1-2-(2)-2-2-2---||
|-0-0-0-0-2--2--2-2-2-|-2---2--0-0-0---|-2---2---2-2-(2)-2-2-2---||
|---------2--2--2-2-2-|-0---0----------|-2---2---2-0-(0)-0-0-0---||
|---------0--0--0-0-0-|----------------|-0---0---0---------------||


  &
                          D     E
  Gtr I
  E S S E E a E S S E E   E E E a E E E E E
|-8-8p7p5-------0-0-----|-------------5-5---|
|---------8-4s5-----5-5-|-7-7-7-7s9---5-7---|
|-----------------------|-7-7-7-7s9---------|
|-----------------------|-------------------|
|-----------------------|-------------------|
|-----------------------|-------------------|
|
| E E   E E   E E   E E   E E E   E E E E E
|-0-0---0-0---0-0---0-0-|-2-2-2---0-0-0-0-0-|
|-2-2---2-2---0-0---0-0-|-3-3-3---0-0-0-0-0-|
|-2-2---2-2---1-1---1-1-|-2-2-2---1-1-1-1-1-|
|-2-2---2-2---2-2---2-2-|-0-0-0---2-2-2-2-2-|
|-0-0---0-0---2-2---2-2-|---------2-2-2-2-2-|
|-------------0-0---0-0-|---------0-0-0-0-0-|


  A     D           E         A
  E E E E E E E E   S E   S E a E E E E E
|-8---5-----------|------------------------||
|-7---5---7-6-7-8-|-9-----7---4s5----------||
|---------7-6-7-8-|-9-----7---5s6-6-6-6-6--||
|-----------------|---------------7-7-7-7--||
|-----------------|------------------------||
|-----------------|------------------------||
|
| E E E E E E E E   E   E   E   E E E E E
|-0-0-0-0-2-2-2-2-|-0---0---0---0-0-0-0-0--||
|-2-2-2-2-3-3-3-3-|-0---0---0---0-2-2-2-2--||
|-2-2-2-2-2-2-2-2-|-1---1---1---1-2-2-2-2--||
|-2-2-2-2-0-0-0-0-|-2---2---2---2-2-2-2-2--||
|-0-0-0-0---------|-2---2---2---2-0-0-0-0--||
|-----------------|-0---0---0---0----------||


 Pre-Chorus
  D
  Gtr III
  PM---------------------------------------------
  E S S  E E E S S  E E   E S S  E E E S S  E E
|-----------------------|-----------------------|
|-----------------------|-----------------------|
|-7-7-7------7-7-7------|-7-7-7------7-7-7------|
|-7-7-7------7-7-7------|-7-7-7------7-7-7------|
|-------10-7-------10-7-|-------10-7-------10-7-|
|-----------------------|-----------------------|
|
| E E    E E E E    E E   E E    E E E E    E E
|-2-2----2-2-2-2----2-2-|-2-2----2-2-2-2----2-2-|
|-3-3----3-3-3-3----3-3-|-3-3----3-3-3-3----3-3-|
|-2-2----2-2-2-2----2-2-|-2-2----2-2-2-2----2-2-|
|-0-0----0-0-0-0----0-0-|-0-0----0-0-0-0----0-0-|
|-----------------------|-----------------------|
|-----------------------|-----------------------|


  A
 -----------------------------------------|
  E S S E E E S S E E   E S S E E E S S E E
|---------------------|---------------------|
|-5-5-5-----5-5-5-----|-5-5-5-----5-5-5-----|
|-6-6-6-----6-6-6-----|-6-6-6-----6-6-6-----|
|-------9-7-------9-7-|-------9-7-------9-7-|
|---------------------|---------------------|
|---------------------|---------------------|
|
| E E   E E E E   E E   E E   E E E E   E E
|-0-0---0-0-0-0---0-0-|-0-0---0-0-0-0---0-0-|
|-2-2---2-2-2-2---2-2-|-2-2---2-2-2-2---2-2-|
|-2-2---2-2-2-2---2-2-|-2-2---2-2-2-2---2-2-|
|-2-2---2-2-2-2---2-2-|-2-2---2-2-2-2---2-2-|
|-0-0---0-0-0-0---0-0-|-0-0---0-0-0-0---0-0-|
|---------------------|---------------------|


  D
  PM---------------------------------------------
  E S S  E E E S S  E E   E S S  E E E S S  E E
|-----------------------|-----------------------|
|-----------------------|-----------------------|
|-7-7-7------7-7-7------|-7-7-7------7-7-7------|
|-7-7-7------7-7-7------|-7-7-7------7-7-7------|
|-------10-7-------10-7-|-------10-7-------10-7-|
|-----------------------|-----------------------|
|
| E E    E E E E    E E   E E    E E E E    E E
|-2-2----2-2-2-2----2-2-|-2-2----2-2-2-2----2-2-|
|-3-3----3-3-3-3----3-3-|-3-3----3-3-3-3----3-3-|
|-2-2----2-2-2-2----2-2-|-2-2----2-2-2-2----2-2-|
|-0-0----0-0-0-0----0-0-|-0-0----0-0-0-0----0-0-|
|-----------------------|-----------------------|
|-----------------------|-----------------------|


  B7                E
 ---------------------------------|
  E E E E E E E E   E E E E E E E E
|-----------------|------------------||
|-----------------|------------------||
|-8-8-8-8-8-8-8-8-|------------------||
|-9-9-9-9-9-9-9-9-|------------------||
|-----------------|-7-7-5-5-4-4------||
|-----------------|-------------7-7--||
|
| E E E E E E E E   E E E E E E E E
|-2-2-2-2-2-2-2-2-|-0-0-0-0-0-0-0-0--||
|-0-0-0-0-0-0-0-0-|-0-0-0-0-0-0-0-0--||
|-2-2-2-2-2-2-2-2-|-1-1-1-1-1-1-1-1--||
|-1-1-1-1-1-1-1-1-|-2-2-2-2-2-2-2-2--||
|-2-2-2-2-2-2-2-2-|-2-2-2-2-2-2-2-2--||
|-----------------|-0-0-0-0-0-0-0-0--||


 Out-Chorus
  A     E         D        E
  Gtr I Gtr III
        PM------------------------------
  Q  Q  E E E E   E  S S E E  E  E E E
|---------------|----------------------|
|---------------|--------7-------------|
|-------9-9-9-9-|------7---7-----9-9-9-|
|-------9-9-9-9-|-7--7-----------9-9-9-|
|----7----------|----------------------|
|-5-------------|----------------------|
|
| H     H         Q.       E +H
|-0-----0-------|-2--------0-(0)-------|
|-2-----0-------|-3--------0-(0)-------|
|-2-----1-------|-2--------1-(1)-------|
|-2-----2-------|-0--------2-(2)-------|
|-0-----2-------|----------2-(2)-------|
|-------0-------|----------0-(0)-------|


  A         D         E      A
                                   Gtr I
 ----------------------------|
  E S S E E E E E E   E  E E E  E   S  S  E E
|-------------------|--------------12-12-12---*|
|-------7-5---------|--------------12-12-12---*|
|-----6-6-6-7-7-7-7-|-9--9-9-6-----12-12-12---*|
|-7-7-------7-7-7-7-|-9--9-9-7-----11-11-11---*|
|-------------------|-------------------------*|
|-------------------|-------------------------*|
|
| H         H         Q.     E +E   S  S  E E
|-0---------2-------|-0------0-(0)--0--0--0---*|
|-2---------3-------|-0------2-(2)--2--2--2---*|
|-2---------2-------|-1------2-(2)--2--2--2---*|
|-2---------0-------|-2------2-(2)--2--2--2---*|
|-0-----------------|-2------0-(0)--0--0--0---*|
|-------------------|-0-----------------------*|
            
Submit corrections


        Its So Easy  lessons Hard to play? Try these video lessons and learn fast Its So Easy  lessons
        
↑ Back to top | Tablatures and chords for acoustic guitar and electric guitar, ukulele, drums are parodies/interpretations of the original songs. You may use it for private study, scholarship, research or language learning purposes only