» » »

Buckley Jeff - The Man That Got Away Tabs

Artists:  A B C D E F G H I J K L M N O P Q R S T U V W X Y Z # 

The Man That Got Away Tabs

(ver. 1) Click to play this song!
Buckley Jeff
 Rating:
4/5 (4 votes)


 The Man That Got Away lessons Tabs too difficult? Try these video lessons and learn fast
 
                Jeff Buckley - The man that got away (Judy Garland cover)

very nice man...
e|-3------3---4---
B|-5------5---4---
G|-4----4-4-x-4---
D|-5----5-5-------
A|-3----3---------
E|------3---------


1. the road is bitter...
2. the man that warn...
3. the road gets...                                      4x  4x
e|------------------------------------------------3---5---------
B|-5--5--4--4--5--5--4--4-(1--1)-----------5-5----5---6--5---6--------
G|-4--4--4--4--4--4--4--4--2--2--4--4--2-3-4-5--4-4-5-5--7---5-----
D|-5--5-(5)(5)-5--5-(5)(5)-3--3--5--5--3-4-5-5--5-5--(0)-6---4-------
A|-3--3--------3--3-------(1--1)-3--3-(1-2-3)------------7---5----
E|------(3)(3)------(3)(3)-------------------3--3---5------------
						    T

1. no more...
2. no more...
			       1st ending	  2nd
e|-------3--------------------|--------------------|---3--------3-----
B|--5----5--5--6---6-8-10-(13)|------------------0-|---5--5-----------
G|--5--4-4--5--6---5-7-9--(12)|----4-3-2---1-2-3---|---4----4------4--
D|-(4)-5-5--5-----------------|----5-5-5-5-----5---|----------5----5--
A|-5---x----3------5-7-8-9-10-|-3----------3-------|-3-------------3--
E|-----3-------5--------------|--------------------|------------------

good riddance...
e|-----------
B|-6--7------
G|-5--7--4---
D|-4-----5---
A|-5--5------
E|------(3)--


but fools will be fools...
e|---5---------------------------
B|-5-5--6-6-8-9-12-------8----3-----------
G|-4-4--5-5-7-8-11-------8----4------------
D|---5-------------------8----5---------
A|-3----5-5-7-8-10-10----6----5-----------------
E|---------------------------------

ever since this world...     soft   1st ending toccle
e|------------------------|--------|----------|-3-3--|-----5----2-3-0-2------10---8---------
B|-6-6-5-2--------6-8-10--|---4-5--|----------|-5-4--|-------3----------3-------7---------8-
G|-5-5-5-2--------5-7-9---|-----4--|----------|-4-4--|-----------------------------------9--
D|-4-4---5----------------|---5----|----------|-5-3--|---5------------------------------10--
A|-5-6-3-4--------5-7-8---|--------|----------|------|-3------------------3------------10---
E|-------5----------------|--------|----------|------|--------------------------------8-----

there need to be a few corrections probably...
mail me then.
I love this song.
I am sorry if it is a bit messy. Listen to Jeff how he plays it.
            
Submit corrections



        The Man That Got Away lessons Hard to play? Try these video lessons and learn fast The Man That Got Away lessons
        
↑ Back to top | Tablatures and chords for acoustic guitar and electric guitar, ukulele, drums are parodies/interpretations of the original songs. You may use it for private study, scholarship, research or language learning purposes only