» » »

Bruce Springsteen - Tenth Avenue Freeze-Out Bass

Artists:  A B C D E F G H I J K L M N O P Q R S T U V W X Y Z # 

Tenth Avenue Freeze-Out Bass

(ver. 1) Click to play this song!
Bruce Springsteen
 Rating:
4.3/5 (20 votes)

 Tenth Avenue Freeze-Out lessons Tabs too difficult? Try these video lessons and learn fast
 
                [Intro]
G|-----------|-----------|------------|-----------|
D|-----------|-----------|-----3-/8---|-------10\\|
A|-5---5-5---|-3---3-3---|-1----------|-----------|
E|-----------|-----------|------------|-----------|

G|-------------|-----------------|-------------|-----5/7--5----|
D|-3-----------|-3---------------|-------------|-3----------7-5|
A|-----5----3h5|-----5--3-(x-x---|-----5----3h5|---------------|
E|-------------|---------------3)|-1-----------|---------------|

G|-------------|-------------|-------------|--------------|
D|-3-----------|-3-----------|-------------|-3-----3-3----|
A|-----5----3h5|-----5--3-0--|-----5----3h5|-----5-----5-3|
E|-------------|------------3|-1-----------|--------------|

[Verse 1]
G|-------------|-----------|-----------|------------|
D|-3-----------|-3---------|-3---------|-3----------|
A|-----5----3h5|-----5----3|-----5----3|-----5---3-0|
E|-------------|-----------|-----------|------------|

G|-----------|-------------|-----------|-------------|
D|-----------|-------------|-3---------|-3-----------|
A|-1---------|-1--------3h5|-----5----3|-----5--3-0--|
E|-----3----1|-----3-------|-----------|------------3|

G|-------------|-----------|-----------|-------------|
D|-------------|-----------|-----------|-------------|
A|-3-----------|-3---0----0|-1---------|-1--------1--|
E|-----5----3h5|-----------|-----3----1|-----3--3---3|

G|-------------|-------------|-------------|-------------|
D|-------------|-3------3----|-3-----------|-3-----------|
A|-----5----3h5|-----5----5-3|-----5----3h5|-----5--3-0--|
E|-1-----------|-------------|-------------|------------3| 

[Verse 2]
G|-------------|-------------|-------------|-------------|
D|-------------|-------------|-------------|-----0--3-0--|
A|-----5--3-0--|-----5--3-0--|-----5--3-0--|------------3|
E|-1----------3|-1----------3|-1----------3|-1-----------|

G|-------------|-------------|-----------------|--------------|
D|-------------|-----5--3-0--|-3-----------(3--|-3)-----------|
A|-1-----------|-1----------3|-----5---3h5----5|------5--3-0--|
E|-----3--3-1-3|-------------|-----------------|-------------3|

G|-----------------|-------------|-------------|---------------------|
D|-----------------|-------------|-------------|-----------------(3--|
A|-3-----------(3--|-3)---0--0--0|-1-----------|-1-1----1-1-/3h5----5|
E|-----5---3h5----5|-------------|-----3--3-1-3|------1--------------|

G|------------------|--------------|-------------|-------------|
D|-3)-----------(3--|-3)-----------|-------------|-3-----------|
A|------5---3h5----5|------5--3-0--|-----5--5-3-5|-----5--5-5-4|
E|------------------|-------------3|-1-----------|-------------|

[Bridge]
G|------------|------------|------------|-------------------|
D|------------|------------|------------|-------------------|
A|-5---5-5---0|-3---3-3---3|-1---1-1----|-1---1---1---1-(3-4|
E|------------|------------|-----------1|---1---1---1-------|

G|----------7-----|-------5---0--|-----------|---3/5-------|
D|------5/7----7-0|-----5-------3|-1---------|-------------|
A|-5)-------------|-3-------3----|-----1-1---|----------3//|
E|----------------|--------------|-----------|-------------|

[Interlude]
G|----------(7-5---|-----------(7-5---|--------------|----------------|
D|--------7------7)|---------7------7)|--------------|-3-3------------|
A|-8---5-----------|-8----5-----------|-8--3-5--3-5-3|-----5-3-5-3-0--|
E|-----------------|----8-------------|--------------|---------------3|

[Verse 3]
G|-----------------|--------------|-------------|-------------|
D|-------------(3--|-3)-----------|-------------|--------3----|
A|-----5---3h5----5|------5--3-0--|-----5--3-0--|-----5----5-0|
E|-1---------------|-------------3|-1----------3|-1-----------|

G|-------------|---------------|------------------|--------------|
D|-------------|---------------|-3------------(3--|-3)-----------|
A|-1-----------|-1--------1-3/5|-----5--5-3h5----5|------5--3-0--|
E|-----3--3-1-3|-----3--3------|------------------|-------------3|

G|-------------|------------|-------------|--------------|
D|-------------|------------|-------------|-------x-0-1-2|
A|-3-----------|-3----------|-------------|-1---1--------|
E|-----5--5-3-5|-----5--5--5|-6---3--3-1-3|--------------| 

G|-----------------|---------------|-------------|----------------|
D|-3-----------(3--|-3)-----3-3----|-3-----------|---------0------|
A|-----5---3h5----5|------5-----5-3|-----5--3-0--|-----3-4---3-0--|
E|-----------------|---------------|------------3|-1-1-----------3|

G|-----------------|--------------|-----------------|---------------|
D|-------------(3--|-3)-----------|-------------(3--|-3)------------|
A|-----5---3h5----5|------5--3-0--|-----5---3h5----5|-----3-5--3-0--|
E|-1---------------|-------------3|-1---------------|--------------3|

[Outro]
G|------------------|------------------|--------------|-----------------|
D|--------------(3--|-3)-----------(3--|-3)-----------|-----------------|
A|-----5--3-3h5----5|------5---3h5----5|------5--3-0--|-----5--3-(5-3-0)|
E|-1----------------|------------------|-------------3|-1---------------| 

G|-----------------|-----------------|-------------|--------------|
D|-----------------|-----------------|-3-----------|-3------------|
A|-----5--3-(5-3-0)|-----5--(5-5-5)-5|-----5--3-x-5|----3-5--3-5-3|
E|-1---------------|-1---------------|-------------|--------------|

G|--------------|-------------------|--------------|----5-7--7-(7-5---|
D|-3------------|-3-------------(3--|-3)-----------|-3--------------7)|
A|----3-5--5-3-5|----3-5--3-3h5----5|------5--3-5-3|------------------|
E|--------------|-------------------|--------------|------------------|

                          (fade out)
G|---------(7-6-7)-|---------(7-6-7)| 
D|-3---------------|-3--------------|
A|----3-5----------|----3-5---------|
E|-----------------|----------------|

            
Submit corrections


        Tenth Avenue Freeze-Out lessons Hard to play? Try these video lessons and learn fast Tenth Avenue Freeze-Out lessons
        
↑ Back to top | Tablatures and chords for acoustic guitar and electric guitar, ukulele, drums are parodies/interpretations of the original songs. You may use it for private study, scholarship, research or language learning purposes only