» » »

Bruce Springsteen - Mans Job Tabs

Artists:  A B C D E F G H I J K L M N O P Q R S T U V W X Y Z # 

Mans Job Tabs

(ver. 1) Click to play this song!
Bruce Springsteen
 Rating:
3.3/5 (29 votes)

 Mans Job  lessons Tabs too difficult? Try these video lessons and learn fast
 
                Tuning: EADGBe
                        C                           C
E--------------------------------------------- x/8--13/10--5/8--13/20------
B-------------------1------1---3---1------1--------------------------------
G----2---3---2--0---0-----------------3-2-0--------------------------------
D--3---3---3------3-2----3---3---3--------2--------------------------------
A-------------------3---------------------3--------------------------------
E--------------------------------------------------------------------------

 
E-1-------------1------------|-1-------------1-------|-1------------1------
B-1-----------1---1---1------|-1-----------1---1---1-|-1----------1---1---1
G-0---------0-------0--------|-0---------0-------0---|-0--------0-------0--
D---3-2----------------------|----3-2----------------|---3-2---------------
A-------3--------------------|--------3--------------|-------3-------------
E----------------------------|-----------------------|---------------------

 
E---------------------1--------------|---------------------1---------------
B-------------------1---1------------|-------------------1---1-------------
G----2---2---2----2-------2----------|----2---2---0----0-------0-----------
D--3---3---3-------------------------|--3---3---3--------------------------
A------------------------------------|-------------------------------------
E------------------------------------|-------------------------------------
            
Submit corrections


        Mans Job  lessons Hard to play? Try these video lessons and learn fast Mans Job  lessons
        
↑ Back to top | Tablatures and chords for acoustic guitar and electric guitar, ukulele, drums are parodies/interpretations of the original songs. You may use it for private study, scholarship, research or language learning purposes only