» » »

Bruce Springsteen - Hungry Heart Bass

Artists:  A B C D E F G H I J K L M N O P Q R S T U V W X Y Z # 

Hungry Heart Bass

(ver. 1) Click to play this song!
Bruce Springsteen
 Rating:
4.3/5 (9 votes)

 Hungry Heart lessons Tabs too difficult? Try these video lessons and learn fast
 
                [Intro]
G|------------|------------|------------|------------| (x2)
D|------------|------------|------------|------------|
A|-4---4------|---------8-7|-6---6------|------------|
E|---------4-5|-6---6------|---------6-5|-4---4---4-6|

[Verse 1]
G|------------|------------|------------|------------| (x2)
D|------------|------------|------------|------------|
A|-4---4------|---------8-7|-6---6------|------------|
E|---------4-5|-6---6------|---------6-5|-4---4---4-6|

G|-------------|-------------|------------|------------| 
D|-------------|-------------|------------|------------|
A|-4---4-------|----------8-7|-6---6------|------------|
E|--------1-4-5|-6---6--6----|---------6-5|-4---4---4-6|

G|-------------|-------------|------------|-------------| 
D|-------------|-------------|------------|-------------|
A|-4---4-------|----------8-7|-6---6------|-------------|
E|--------1-4-5|-6---6--6----|---------6-5|-4---4--4-4-6|

[Interlude]
G|-------------|-------------|-------------|------------| 
D|-------------|-------------|----------8-7|-6--------6-|
A|-4---4-------|----------8-7|-6---6--6----|-----6-8----|
E|--------1-4-5|-6---6--6----|-------------|------------|

[Verse 2]
G|-------------|-------------|-------------|-------------| 
D|-------------|-------------|-------------|-------------|
A|-4---4-------|----------8-7|-6---6--6----|-------------|
E|--------1-4-5|-6---6--6----|----------6-5|-4---4--4-4-6|

G|-------------|-------------|-------------|--------------| 
D|-------------|-------------|-------------|--------------|
A|-4---4-------|----------8-7|-6---6--6----|--------------|
E|--------1-4-5|-6---6--6----|----------6-6|-4---4-4-4-4-6|

[Chorus]
G|--------------|---------------|---------------|---------------| 
D|--------------|---------------|------------8-7|-6-6-----------|
A|-4----4-------|------------8-7|-6-6---6--6----|-----6---------|
E|----4----1-4-5|-6-6-4-6--6----|-----6---------|-------4--4-4-6|

G|---------------|---------------|---------------|---------------| 
D|---------------|---------------|------------8--|-6-6-----------|
A|-4-4---4-------|------------8-7|-6-6---6--6---6|-----6--------6|
E|-----4----1-4-5|-6-6-4-6--6----|-----6---------|-------4--4-4--|

[Instrumental]
G|---------------|---------------|---------------|---------------|
D|---------------|------------6-5|-4-4---4--4---4|--------9-9-6--|
A|-7-7---7--7-6--|-4-4---4--4----|-----4------4--|--------------9|
E|-----7--------7|-----7---------|---------------|-7-7--7--------|

G|---------------|---------------|---------------|-------------------|
D|---------------|------------6-5|-4-4---4--4---4|-------------------|
A|-7-7---7--7-6--|-4-4---4--4----|-----4------4--|-------------------|
E|-----7--------7|-----7---------|---------------|-4-4--4-4-4-4-(4-6)|

[Chorus/Outro]
G|--------------|---------------|---------------|-------------| 
D|--------------|---------------|---------------|-------------|
A|-4----4-------|------------8--|-6-6---6--6----|-------------|
E|----4----1-4-5|-6-6-4-6--6---6|-----6------6-6|-4---4--4-4-6|

G|-------------|-------------|-------------|---------------| 
D|-------------|-------------|-------------|------6--------|
A|-4---4-------|----------8-7|-6---6--6----|---------------|
E|--------1-4-5|-6---6--6----|----------6-5|-4-4----4-4-4-6|

G|--------------|---------------|---------------|---------------| 
D|--------------|---------------|---------------|-------6--3----|
A|-4----4-------|------------8-7|-6-6---6--6---6|-----6------6--|
E|----4----1-4-5|-6-6-4-6--6----|-----6------6--|-4-4----------4|

G|---------------|---------------|---------------|--------------| 
D|---------------|---------------|---------------|--------------|
A|-4-4---4-------|------------8-7|-6-6---6--6---6|--------------|
E|-----4----1-4-5|-6-6-4-6--6----|-----6------6--|-4-4--4-4-4--4|

G|---------------|---------------|---------------|---------------| 
D|---------------|---------------|------------8--|-6------6-6-3--|
A|-4-4---4-------|------------8-7|-6-6---6--6---6|---6----------6|
E|-----4----1-4-5|-6-6-4-6--6----|-----6---------|-----4---------|

G|---------------|---------------|---------------|---------------| 
D|---------------|---------------|---------------|-6----6--------|
A|-4-4---4-------|------------8--|-6-6---6--6---6|---------------|
E|-----4----1-4-5|-6-6-4-6--6---6|-----6------6--|---4----4-4-4-6|

G|---------------|---------------|---------------|---------------| 
D|---------------|---------------|------------8-7|-6--6------6---|
A|-4-4---4-------|------------8-7|-6-6---6--6----|-------6h8----8|
E|-----4----1-4-5|-6-6-4-6--6----|-----6---------|---------------|

G|--------------|---------------|---------------|----------------| 
D|--------------|---------------|---------------|----------------|
A|-4----4-------|------------8-7|-6-6---6--6---6|----------------|
E|----4----1-4-5|-6-6-4-6--6----|-----6------6--|-4-4-4-4-4-4-4-6|
                                                       (fade out)
G|--------------|---------------|---------------|----------------| 
D|--------------|---------------|---------------|----------------|
A|-4----4-------|------------8-7|-6-6---6--6---6|----------------|
E|----4----1-4-5|-6-6-4-6--6----|-----6------6--|-4-4-4-4-4-4-4-6|
            
Submit corrections


        Hungry Heart lessons Hard to play? Try these video lessons and learn fast Hungry Heart lessons
        
↑ Back to top | Tablatures and chords for acoustic guitar and electric guitar, ukulele, drums are parodies/interpretations of the original songs. You may use it for private study, scholarship, research or language learning purposes only