» » »

Bruce Springsteen - Dancing In The Dark Bass

Artists:  A B C D E F G H I J K L M N O P Q R S T U V W X Y Z # 

Dancing In The Dark Bass

(ver. 1) Click to play this song!
Bruce Springsteen
 Rating:
4.3/5 (24 votes)

 Dancing In The Dark lessons Tabs too difficult? Try these video lessons and learn fast
 
                [Intro]
G|----------------|
D|----------------|
A|2-2-2-2-2-2-2-2-| 8x
E|----------------|

[Verse]
G|----------------|
D|----------------|
A|2-2-2-2-2-2-2-2-| 8x
E|----------------|

[Pre-chorus]
G|----------------|----------------|----------------|----------------|
D|2-2-2-2-2-2-2-2-|----------------|2-2-2-2-2-2-2-2-|----------------|
A|----------------|4-4-4-4-4-4-2-4-|----------------|4-4-4-4-4-4-4-4-|
E|----------------|----------------|----------------|----------------|

G|----------------|----------------|----------------|----------------|
D|----------------|----------------|----------------|--------------2-|
A|2-2-2-2-2-2-2-2-|----------------|2-2-2-2-2-2-2-2-|----------2-4---|
E|----------------|4-4-4-4-4-4-2-4-|----------------|4-4-4-4-4-------|

[Chorus]
G|----------------|----------------|----------------|------------1---|
D|4-4-4-4-4-4-4-4-|4-4-4-4-4-4-4-4-|4-4-4-4-4-4-4-4-|4-4-4-4-4-4---4-|
A|----------------|----------------|----------------|----------------|
E|----------------|----------------|----------------|----------------|

G|----------------|----------------|----------------|----------------|
D|2-2-2-2-2-2-2-2-|----------------|2-2-2-2-2-2-2-2-|----------------|
A|----------------|4-4-4-4-4-4-2-4-|----------------|4-4-4-4-4-4-4-4-|
E|----------------|----------------|----------------|----------------|

[Post-chorus]
G|----------------|
D|----------------|
A|2-2-2-2-2-2-2-2-| 4x
E|----------------|

[Bridge]
G|----------------|----------------|----------------|----------------|
D|----------------|----------------|2-2-2-2-2-2-2-2-|4-4-4-4-4-4-4---|
A|----------------|2-2-2-2-2-2-2-2-|----------------|--------------2-|
E|4-4-4-4-4-4-4-4-|----------------|----------------|----------------|

G|----------------|----------------|----------------|----------------|
D|----------------|----------------|2-2-2-2-2-2-2-2-|4-4-4-4-4-4-4-4-|
A|----------------|2-2-2-2-2-2-2-2-|----------------|----------------|
E|4-4-4-4-4-4-4-4-|----------------|----------------|----------------|

[Outro]
G|----------------|
D|----------------|
A|2-2-2-2-2-2-2-2-| Until end
E|----------------|            
Submit corrections


        Dancing In The Dark lessons Hard to play? Try these video lessons and learn fast Dancing In The Dark lessons
        
↑ Back to top | Tablatures and chords for acoustic guitar and electric guitar, ukulele, drums are parodies/interpretations of the original songs. You may use it for private study, scholarship, research or language learning purposes only