» » »

Bruce Springsteen - Cadillac Ranch Tabs

Artists:  A B C D E F G H I J K L M N O P Q R S T U V W X Y Z # 

Cadillac Ranch Tabs

(ver. 1) Click to play this song!
Bruce Springsteen
 Rating:
4.3/5 (25 votes)

 Cadillac Ranch lessons Tabs too difficult? Try these video lessons and learn fast
 
                [Intro]

Play twice

e|--------------------------------------------------------------------------------------|
B|-----------------------------------------------h(13)13-----h(13)13-13-----------------|
G|----------12---12--12---12--12-12-----12---12-12----12-12-12----12-12-12-12-12-----12-|
D|----------12---12--12---12--12-14p12--12---12-12h14-14-12-12h14-14-14-12-12-14p12--12-|
A|-10-12/14--------14-------14--------14-------------------------------------------14---|
E|--------------------------------------------------------------------------------------|

e|--------------------------------------------------------------------------------------|
B|-----------------------------------------------h(13)13-----h(13)13-13-13-13-13b-12----|
G|----------12---12--12---12--12-12-----12---12-12----12-12-12----12-12-14-14-14b-12----|
D|----------12---12--12---12--12-14p12--12---12-12h14-14-12-12h14-14-14-----------------|
A|-10-12/14--------14-------14--------14------------------------------------------------|
E|--------------------------------------------------------------------------------------|            
Submit corrections


        Cadillac Ranch lessons Hard to play? Try these video lessons and learn fast Cadillac Ranch lessons
        
↑ Back to top | Tablatures and chords for acoustic guitar and electric guitar, ukulele, drums are parodies/interpretations of the original songs. You may use it for private study, scholarship, research or language learning purposes only