» » »

Bruce Springsteen - American Skin 41 Shots Tabs

Artists:  A B C D E F G H I J K L M N O P Q R S T U V W X Y Z # 

American Skin 41 Shots Tabs

(ver. 1) Click to play this song!
Bruce Springsteen
 Rating:
4.3/5 (18 votes)

 American Skin 41 Shots lessons Tabs too difficult? Try these video lessons and learn fast
 
                [Solo]
e|----------------------------------------------------|----------------------|
B|------17~~------------------------------------------|----------------------|
G|--14--------------14-16b18-16b18--14-13~~~~--14-13--|-------14-16b-16b18---|
D|------------14h16-----------------------------------|-14h16----------------|
A|----------------------------------------------------|----------------------|
E|----------------------------------------------------|----------------------|

e|--------------------|----------14--17p16-16-16-16--------------------------|
B|-----------17-17~~--|--14--17----------------------------------------------|
G|--14-13~~-----------|------------------------------------------------------|
D|--------------------|------------------------------------------------------|
A|--------------------|------------------------------------------------------|
E|--------------------|------------------------------------------------------|

e|--16-16-16-17--19-19b21r19--17--------|------------------------------------|
B|------------------------------19-17~~-|--14--14~~-------14---19\17--14-----|
G|--------------------------------------|-------------16------------------16-|
D|--------------------------------------|------------------------------------|
A|--------------------------------------|------------------------------------|
E|--------------------------------------|------------------------------------|

e|------------------------------------|--17p14----------------14h17p14-------|
B|--14-17-17b19--17b19--17b19--17b19--|--------17p14----14h17----------------|
G|------------------------------------|--------------16------------------4x--|
D|------------------------------------|--------------------------------------|
A|------------------------------------|--------------------------------------|
E|------------------------------------|--------------------------------------|            
Submit corrections


        American Skin 41 Shots lessons Hard to play? Try these video lessons and learn fast American Skin 41 Shots lessons
        
↑ Back to top | Tablatures and chords for acoustic guitar and electric guitar, ukulele, drums are parodies/interpretations of the original songs. You may use it for private study, scholarship, research or language learning purposes only