» » »

Browne Jackson - My Opening Farewell Tabs

Artists:  A B C D E F G H I J K L M N O P Q R S T U V W X Y Z # 

My Opening Farewell Tabs

(ver. 1) Click to play this song!
Browne Jackson
 Rating:
4/5 (4 votes)

 My Opening Farewell lessons Tabs too difficult? Try these video lessons and learn fast
 
                Lines: 35
References: 


Chords Used:
    D      E/D     G/D     D*   E/D*   G/D*  
-----2--------4--------3-------5-------7--------7---
-----3--------5--------3-------7-------9--------8---
-----2--------4--------4-------7-------9--------7---
-----0--------0--------0-------0-------0--------0---
---------------------------------------------------------
---------------------------------------------------------
 
A7sus4    A7      A7/D
---0----------0------------9--------------    
---4----------2------------8--------------
---0----------0------------9--------------
---2----------2------------0--------------  
---0----------0----------------------------
--------------------------------------------   
   Intro:

E-------5-------5-------------4---------4------------3--------3------
B--7--------7------------5---------5------------3--------3-----------   
G-------7-------7-------------4---------4------------4--------4------   
D--0--------0-------0---0---------0--------0---0---------0-------0-   
A-------------------------------------------------------------------------
E-------------------------------------------------------------------------


E----2-----3p2---0-----
B----3--------------------
G----2--------------------   
D----0-----0-----0------   
A-------------------------
E-------------------------
            
Submit corrections


        My Opening Farewell lessons Hard to play? Try these video lessons and learn fast My Opening Farewell lessons
        
↑ Back to top | Tablatures and chords for acoustic guitar and electric guitar, ukulele, drums are parodies/interpretations of the original songs. You may use it for private study, scholarship, research or language learning purposes only