» » »

Broken Bells - The High Road Tabs

Artists:  A B C D E F G H I J K L M N O P Q R S T U V W X Y Z # 

The High Road Tabs

(ver. 1) Click to play this song!
Broken Bells
 Rating:
4.3/5 (24 votes)

 The High Road lessons Tabs too difficult? Try these video lessons and learn fast
 
                [Intro]

e|----------------------------------------------------------------------------------------------------------|
B|------------10------------------------------------------------------10------------10----------------13-10-|
G|----10-12------12-10-12-10---------------------10----12---------------------10-12----12-10-12-10-12-------|
D|-12------------------------12-10-12---------10----10----10-------------12---------------------------------|
A|------------------------------------12-12-----------------12-10-------------------------------------------|
E|----------------------------------------------------------------13----------------------------------------|

e|----------------10---------------------------|
B|-------10----------13-10-------------8\10----|
G|-10-12----12-10-------------------10------10-|
D|---------------------------------------------|
A|-------------------------12\10---------------|
E|-------------------------------13------------|


[Bridge]

e|----------10----------------------------10----------------------10-12-10-------|
B|-10-12-13----13-12-10----10----10-12-13----13-12-10----10-12-13----------13-12-|
G|----------------------12----------------------------12-------------------------|
D|-------------------------------------------------------------------------------|
A|-------------------------------------------------------------------------------|
E|-------------------------------------------------------------------------------|            
Submit corrections


        The High Road lessons Hard to play? Try these video lessons and learn fast The High Road lessons
        
↑ Back to top | Tablatures and chords for acoustic guitar and electric guitar, ukulele, drums are parodies/interpretations of the original songs. You may use it for private study, scholarship, research or language learning purposes only