» » »

Broken Bells - The Angel And The Fool Tabs

Artists:  A B C D E F G H I J K L M N O P Q R S T U V W X Y Z # 

The Angel And The Fool Tabs

(ver. 1) Click to play this song!
Broken Bells
 Rating:
4.9/5 (20 votes)

 The Angel And The Fool  lessons Tabs too difficult? Try these video lessons and learn fast
 
                standard tuning


INTRO/VERSE/CHORUS

e-|----3-------3---|----3-------0---|----3-------3---|----3-------0---|
b-|----3-------3---|----3-------1---|----3-------3---|----3-------1---|
g-|----3-------3---|----3-------0---|----3-------3---|----3-------0---|
d-|5-----5-4-----4-|3-----3-2-----2-|5-----5-4-----4-|3-----3-2-----2-|
a-|----------------|----------------|----------------|----------------|
E-|----------------|----------------|----------------|----------------|
  |^ ' ^ ' ^ ' ^ ' |^ ' ^ ' ^ ' ^ ' |^ ' ^ ' ^ ' ^ ' |^ ' ^ ' ^ ' ^ ' |
   1   2   3   4    1   2   3   4    1   2   3   4    1   2   3   4    


PRECHORUS

e-|----3-------3---|----3-------3---|----3-------3---|----3-------3---|
b-|----3-------3---|----3-------3---|----3-------3---|----3-------3---|
g-|--3-------3-----|--2-------0-----|--3-------3-----|--2-------0-----|
d-|1-------1-------|0---------------|1-------1-------|0---------------|
a-|----------------|--------3-------|----------------|--------3-------|
E-|----------------|----------------|----------------|----------------|
  |^ ' ^ ' ^ ' ^ ' |^ ' ^ ' ^ ' ^ ' |^ ' ^ ' ^ ' ^ ' |^ ' ^ ' ^ ' ^ ' |
   1   2   3   4    1   2   3   4    1   2   3   4    1   2   3   4    


GUITAR 2 - over 2nd verse

e-|6---6---5---5---|6---6---8---8---|6---6---5---5---|6---6---8---8---|
b-|8---8---8---8---|8---8---8---8---|8---8---8---8---|8---8---8---8---|
g-|7---7---7---7---|7---7---7---7---|7---7---7---7---|7---7---7---7---|
d-|----------------|----------------|----------------|----------------|
a-|----------------|----------------|----------------|----------------|
E-|----------------|----------------|----------------|----------------|
  |^ ' ^ ' ^ ' ^ ' |^ ' ^ ' ^ ' ^ ' |^ ' ^ ' ^ ' ^ ' |^ ' ^ ' ^ ' ^ ' |
   1   2   3   4    1   2   3   4    1   2   3   4    1   2   3   4                
Submit corrections


        The Angel And The Fool  lessons Hard to play? Try these video lessons and learn fast The Angel And The Fool  lessons
        
↑ Back to top | Tablatures and chords for acoustic guitar and electric guitar, ukulele, drums are parodies/interpretations of the original songs. You may use it for private study, scholarship, research or language learning purposes only