» » »

Broken Bells - Leave It Alone Tabs

Artists:  A B C D E F G H I J K L M N O P Q R S T U V W X Y Z # 

Leave It Alone Tabs

(ver. 1) Click to play this song!
Broken Bells
 Rating:
3.5/5 (22 votes)

 Leave It Alone  lessons Tabs too difficult? Try these video lessons and learn fast
 
                Capo on the first fret.

Tuning:EADGBe (Capo on the First)

Dm finger position
e|---1--------3---------1---------0h1p0------0-------------------------------|
B|------3-----3---3-----0---3-----------3------------------------------------|
G|--------2---------2---------2-----------2----------------------------------|
D|---0----------------------------0------------------------------------------|
A|---------------------------------------------------------------------------|
E|---------------------------------------------------------------------------|

e|---1--------3--------1---0-------------------------------------------------|
B|------3-----3---3------------3---------------------------------------------|
G|--------2---------2--------------2-----------------------------------------|
D|---0-----------------------------------------------------------------------|
A|---------------------------------------------------------------------------|
E|---------------------------------------------------------------------------|

C finger position
e|-----------0-------1-------0-----------------------------------------------|
B|---1----------1-------1-------1---1----------------------------------------|
G|------0---------0-------0-------0------------------------------------------|
D|--------2------------------------------------------------------------------|
A|---3-------3-------3-------3-----------------------------------------------|
E|---------------------------------------------------------------------------|

e|-----------1-------0-------------------------------------------------------|
B|---1----------1--------3---1-----------------------------------------------|
G|------0---------0----------------------------------------------------------|
D|--------2------------------------------------------------------------------|
A|---3-------3---------------------------------------------------------------|
E|---------------------------------------------------------------------------|
            
Submit corrections


        Leave It Alone  lessons Hard to play? Try these video lessons and learn fast Leave It Alone  lessons
        
↑ Back to top | Tablatures and chords for acoustic guitar and electric guitar, ukulele, drums are parodies/interpretations of the original songs. You may use it for private study, scholarship, research or language learning purposes only