Home » B » Broilers »

Broilers - Ist Da Jemand Tabs

Artists:  A B C D E F G H I J K L M N O P Q R S T U V W X Y Z # 

Ist Da Jemand Tabs

(ver. 1) Click to play this song!
Broilers
Tuning = Standart 


e|--------------------------------------------------------------|
B|--------------------------------------------------------------|
G|--------------------------------------------------------------|
D|----------------7-----7--8------------------------------------|
A|-5---8---5---8--5--5--5--6------------------------------------|
E|-3---6---3---6-----3------------------------------------------|

this is the first riff play all p chords 15 times  the last is hold 30

   
Refrain

e|--------------------------------------------------------------|
B|--------------------------------------------------------------|
G|--------------------------------------------------------------|
D|-----8----10--------------------------------------------------|
A|--5--6--8--8--------------------------------------------------|
E|--3----6------------------------------------------------------|

hit every chord 8 times 


than play the beginning again but stopped with the right hand.
at the last chord 6/8 get your right hand off in the half for a fuller sound 
e|--------------------------------------------------------------|
B|--------------------------------------------------------------|
G|--------------------------------------------------------------|
D|----------------7------7--8-----------------------------------|
A|-5---8---5---8--5---5--5--6-----------------------------------|
E|-3---6---3---6-----3------------------------------------------|

than the refrain again 

e|--------------------------------------------------------------|
B|--------------------------------------------------------------|
G|-------------------------------------------------------------|
D|-----8----10--------------------------------------------------|
A|--5--6--8--8---------------------------------------------------|
E|--3----6------------------------------------------------------|

here is a little break after the break play 


e|--------------------------------------------------------------|
B|--------------------------------------------------------------|
G|--------------------------------------------------------------|
D|--8-------10--------------------------------------------------|
A|--6---8---8---5-----------------------------------------------|
E|------6-------3-----------------------------------------------|

after this you play ( play it first slow than strummed and than full and fast)

e|--------------------------------------------------------------|
B|--------------------------------------------------------------|
G|--------------------------------------------------------------|
D|---------8---10-----------------------------------------------|
A|--5---8--6---8------------------------------------------------|
E|--3---6-------------------------------------------------------|


after a break there comes the last part where u play the normal refrain again


e|--------------------------------------------------------------|
B|--------------------------------------------------------------|
G|-----8--------------------------------------------------------|
D|-----6----10--------------------------------------------------|
A|--5----8--8---------------------------------------------------|
E|--3----6------------------------------------------------------|

at the end fade out.
            
Submit corrections

↑ Back to top | Tablatures and chords for acoustic guitar and electric guitar, ukulele, drums are parodies/interpretations of the original songs. You may use it for private study, scholarship, research or language learning purposes only