» » »

Broadway - The Prom Queen Has No Friends Tabs

Artists:  A B C D E F G H I J K L M N O P Q R S T U V W X Y Z # 

The Prom Queen Has No Friends Tabs

(ver. 1) Click to play this song!
Broadway
 Rating:
4/5 (4 votes)


 The Prom Queen Has No Friends lessons Tabs too difficult? Try these video lessons and learn fast
 
                
Tuning:Drop D

Intro
e|-------------------------------------------------------------------------|
B|-------------------------------------------------------------------------|
G|-------------------------------------------------------------------------|
D|------4-----444---4--------------7--7---777-------222222------0----------|
A|------4-----444---4--------------7--7---777-------222222------0----(x4)--|
D|------4-----444---4--------------7--7---777-------222222------0----------|

e|---------------------------------------------------------------------------------|
B|---------------------------------------------------------------------------------|
G|---------------------------------------------------------------------------------|
D|--------0--------4-----7-----2---------------------------------------------------|
A|--------0--------4-----7-----2---------------------------------------------------|
D|--------0--------4-----7-----2---------------------------------------------------|

e|------------------------------------------------------------------------|
B|------------------------------------------------------------------------|
G|------------------------------------------------------------------------|
D|--------4--------------7----------------2--------------0-------2-----4--|
A|--------4--(x5)--------7------(x5)------2----(x5)------0-------2-----4--|
D|--------4--------------7----------------2--------------0-------2-----4--|

e|-----------------------------------------------------------------------------------|
B|-----------------------------------------------------------------------------------|
G|-----------------------------------------------------------------------------------|
D|------4----------7-----2---------0---------2----4----------------------------------|
A|------4----------7-----2---------0---------2----4----------------------------------|
D|------4----------7-----2---------0---------2----4----------------------------------|

e|--------------------------------------------------------------------------|
B|--------------------------------------------------------------------------|
G|--------------------------------------------------------------------------|
D|----4---44---4---4--------7--77--7---7------2--22--2--2-------0--2--4--7--|
A|----4---44---4---4--------7--77--7---7------2--22--2--2-------0--2--4--7--|
D|----4---44---4---4--------7--77--7---7------2--22--2--2-------0--2--4--7--|

e|---------------------------------------------|
B|---------------------------------------------|
G|---------------------------------------------|
D|----444--444--444---000--000---000-----------|
A|----444--444--444---000--000---000-------x3--|
D|----444--444--444---000--000---000-----------|

e|--------------------------------------------------|
B|--------------------------------------------------|
G|--------------------------------------------------|
D|---444444444444-----7777777777------222222222222--|
A|---444444444444-----7777777777------222222222222--|
D|---444444444444-----7777777777------222222222222--|

e|-----------------------------------------------------------------|
B|-----------------------------------------------------------------|
G|-----------------------------------------------------------------|
D|--44444444444444-----777777777777777-----222222222222222-----2~--|
A|--44444444444444-----777777777777777-----222222222222222-----2~--|
D|--44444444444444-----777777777777777-----222222222222222-----2~--|

e|-----------------------------------------------------------------|
B|-----------------------------------------------------------------|
G|-----------------------------------------------------------------|
D|---4-----------7-----------2-------------------------------------|
A|---4--x8-------7--x8-------2---x8---------------(x4)-------------|
D|---4-----------7-----------2-------------------------------------|

This is an amazing song and im soo suprised that there isnt a tab out for it so i gave
a try. This is in no way 100% correct but I think that it is some what close. This is my
tab so feel free to comment on it, and if im wrong about some parts, feel free to tell 
because i would like to get the lead guitar on this.
            
Submit corrections



        The Prom Queen Has No Friends lessons Hard to play? Try these video lessons and learn fast The Prom Queen Has No Friends lessons
        
↑ Back to top | Tablatures and chords for acoustic guitar and electric guitar, ukulele, drums are parodies/interpretations of the original songs. You may use it for private study, scholarship, research or language learning purposes only