Home » B » Brings »

Brings - Kölsche Jung Tabs

Artists:  A B C D E F G H I J K L M N O P Q R S T U V W X Y Z # 

Kölsche Jung Tabs

(ver. 1) Click to play this song!
Brings
 Rating:
4/5 (4 votes)
                Tuning: 1/2- Down

e|-12p9---9-------------------12p9--9----------------------------------------|
B|------12-9-12---9---------------12-9-12--9---------------------------------|
G|--------------11-9-11------------------11-9-11-----------------------------|
D|----------------------9-11--------------------9-11-------------------------|
A|---------------------------------------------------------------------------|
E|---------------------------------------------------------------------------|

e|-------------------------------------12-14-15-16-15-14-12------------------|
B|-9-9-12-9-9-12-9-9-12-9-9-12-9-12-14---------------------------------------|
G|---------------------------------------------------------------------------|
D|---------------------------------------------------------------------------|
A|---------------------------------------------------------------------------|
E|---------------------------------------------------------------------------|

e|-19p16----------16-19p16----------16-19p16----------16-19p16-19-20-21------|
B|-------17-16-17----------17-16-17----------17-16-17------------------------|
G|---------------------------------------------------------------------------|
D|---------------------------------------------------------------------------|
A|---------------------------------------------------------------------------|
E|---------------------------------------------------------------------------|

e|-14------------------------------------------------------------------------|
B|---h17--14-----------------------------------------------------------------|
G|------13--h16--14p13------------------13\11--11\9--9\7-7\6-6\4-4\2-2-1-----|
D|-------------14--------------13-14-16------12----11---9---7---5---4--------|
A|--------------------16-14-16-----------------------------------------------|
E|---------------------------------------------------------------------------|            
Submit corrections

↑ Back to top | Tablatures and chords for acoustic guitar and electric guitar, ukulele, drums are parodies/interpretations of the original songs. You may use it for private study, scholarship, research or language learning purposes only