» » »

Bright Eyes - Singularity Tabs

Artists:  A B C D E F G H I J K L M N O P Q R S T U V W X Y Z # 

Singularity Tabs

(ver. 1) Click to play this song!
Bright Eyes
 Rating:
4/5 (4 votes)

 Singularity lessons Tabs too difficult? Try these video lessons and learn fast
 
                -------------------------------------------------------------------------------
-------------------------------------------------------------------------------

Tuning: Standard


*palm mute is key to achieve steady synth sound 
you should always be racking most of the strings 

Rhythm- fast down strokes (follows synth)

**means digression from synth, I can't sing hardly at all so at times i tab out the melody 



Intro
e|-----------x-----------------------------4--------------------------------|
B|-9---------7---------5-------------------4--------------------------------|
G|-9---------8---------6-------------------4--------------------------------|
D|-9---------8---------6---------4---------6--------------------------------|
A|-7---------6---------4---------4---------6--------------------------------|
E|-------------------------------2---------4--------------------------------|


     Verse 1        

            Learning on the Fly                How to gather and an*lyze  
e|---4--------7--------------------------4-------7-------------------------|
B|---4--------7---------5--------5-------4-------7--------x--------7-------|
G|---4--------8---------6--------6-------4-------8--------9--------8-------|
D|---6--------9---------6--------6-------6-------9--------9--------8-------|
A|---6--------9---------4--------4-------6-------9--------7--------6-------|
E|---4--------7--------------------------4-------7-------------------------|


       Nothing is living  If nothing dies        **
e|---4-------7---------------------------------------4----------------------|
B|---4-------7---------9-----------------4--4--------4----------------------|
G|---4-------8---------9---------8-------4--4--4-----4----------------------|
D|---6-------9---------9---------9-------4--4--4-----6----------------------|
A|---6-------9--------11---------9-------6--6--4h6p4h6----------------------|
E|---4-------7-------------------0-------------------4----------------------|


         What an exception to make        Roundly rejecting our fate
e|---4-----------7-------------------x--------------------------------------|
B|---4-----------7-------------------9--------7-----------------------------|
G|---4-----------8-------------------9--------8--------6--------8-----------|
D|---6-----------9-------------------9--------8--------6--------9-----------|
A|---6-----------9-------------------7--------6--------4--------9-----------|
E|---4-----------7----------------------------------------------7-----------|

Chorus
          
       When Singularity comes                We will be fully revealed 
e|------------2--------7----------------------------------------------------|
B|---9--------2--------7--------9-----------------5---------4--------5------|
G|---9--------3--------8--------9--------8--------6---------x--------6------|
D|---9--------4--------9--------9--------8--------6---------4--------6------|
A|---x--------4--------9--------7--------6--------4---------4--------4------|
E|---0--------2--------7--------x-------------------------------------------|


 Wander in limitless fields   When Singularity comes   
e|----------------------------------2---------7-----------------------------|
B|---4--------------------9---------2---------7-------9-------------5-------|
G|---x--------------------9---------3---------8-------9------8------6-------|
D|---4--------------------9---------4---------9-------9------8------6-------|
A|---4--------------------x---------4---------9-------7------6------4-------|
E|------------------------0---------2---------7-------x---------------------|

We will be abstraction, We will be buried.. all will be.. we will be one
e|-----------------------------------------------------------------------7--|
B|------4---------5---------4----------5---------4-----------------------7--|
G|------x---------6---------x----------6---------x-----------------------8--|
D|------4---------6---------4----------6---------4-----------------------9--|
A|------4---------4---------4----------4---------4-----------------------9--|
E|-----------------------------------------------------------------------7--|

*here is the synth over synth riff, though I think it's obnoxious

e|----------------9b10b9-7h9p4----------------------------------------------|
B|--------------------------------------------------------------------------|
G|--------------------------------------------------------------------------|
D|--------------------------------------------------------------------------|
A|--------------------------------------------------------------------------|
E|--------------------------------------------------------------------------|

Verse 2

          Now we're on are way         All our instincts accelerate
e|---4--------7--------------------------4-------7--------------------------|
B|---4--------7---------5--------5-------4-------7--------x--------7--------|
G|---4--------8---------6--------6-------4-------8--------9--------8--------|
D|---6--------9---------6--------6-------6-------9--------9--------8--------|
A|---6--------9---------4--------4-------6-------9--------7--------6--------|
E|---4--------7--------------------------4-------7--------------------------|

    Nothing you imagine could keep this pace       **
e|---4-------7---------------------------------------4----------------------|
B|---4-------7---------9-----------------4--4--------4----------------------|
G|---4-------8---------9---------8-------4--4--4-----4----------------------|
D|---6-------9---------9---------9-------4--4--4-----6----------------------|
A|---6-------9---------11--------9-------6--6--4h6p4h6----------------------|
E|---4-------7-------------------0-------------------4----------------------|

      We will know freedom at last        Finally make up for the past
e|---4-----------7-------------------x--------------------------------------|
B|---4-----------7-------------------9--------7-----------------------------|
G|---4-----------8-------------------9--------8--------6--------8-----------|
D|---6-----------9-------------------9--------8--------6--------9-----------|
A|---6-----------9-------------------7--------6--------4--------9-----------|
E|---4-----------7----------------------------------------------7-----------|

Chorus 
        
       When Singularity comes                    we will be faster than light
e|------------2--------7----------------------------------------------------|
B|---9--------2--------7--------9-----------------5---------4--------5------|
G|---9--------3--------8--------9--------8--------6---------x--------6------|
D|---9--------4--------9--------9--------8--------6---------4--------6------|
A|---x--------4--------9--------7--------6--------4---------4--------4------|
E|---0--------2--------7--------x-------------------------------------------|

  
 Whistle, skipping through time,   When Singularity comes
e|----------------------------------2---------7-----------------------------|
B|---4--------------------9---------2---------7-------9-------------5-------|
G|---x--------------------9---------3---------8-------9------8------6-------|
D|---4--------------------9---------4---------9-------9------8------6-------|
A|---4--------------------x---------4---------9-------7------6------4-------|
E|------------------------0---------2---------7-------x---------------------|


We will be... we will be cradled within, all will be perfect, we will be one
e|-----------------------------------------------------------------------7--|
B|------4---------5---------4----------5---------4-----------------------7--|
G|------x---------6---------x----------6---------x-----------------------8--|
D|------4---------6---------4----------6---------4-----------------------9--|
A|------4---------4---------4----------4---------4-----------------------9--|
E|-----------------------------------------------------------------------7--|


When   Sing-       u-       lar-      ah-        ty         comes     **
e|------------------------------------11--------------------7---------------|
B|--------9-----------------4---------12---------9----------7---------------|
G|--------9--------8--------4---------11---------9----------8---------------|
D|--------9--------9--------4---------9----------9----------9---------------|
A|--------11-------9--------6-------------------------------9---------------|
E|-----------------0----------------------------------------7---------------|

Bridge


e|----4--------7--------------------------4--------7------------------------|
B|----4--------7--------5--------5--------4--------7-------x--------x-------|
G|----4--------8--------6--------6--------4--------8-------9--------9-------|
D|----6--------9--------6--------6--------6--------9-------9--------9-------|
A|----6--------9--------4--------4--------6--------9-------7--------7-------|
E|----4--------7--------------------------4--------7------------------------|


e|--------------------------------------------------------------------------|
B|---6--------4-------------------------------------------------------------|
G|---8--------x-------------------------------------------------------------|
D|---8--------4-------------------------------------------------------------|
A|---7--------4-------------------------------------------------------------|
E|--------------------------------------------------------------------------|

Verse 3

         Living in one mind                     Every pin drop is amplified
e|---7---------------------------------------11-----------------------------|
B|---9---------x----------9---------9--------12------11-------9------x------|
G|---8---------11---------9---------9--------13------11-------9------11-----|
D|---6---------9----------9---------9--------13------11-------9------9------|
A|-------------------------------------------11-----------------------------|
E|--------------------------------------------------------------------------|

     Every outcome...                   Will make a rag doll of god  Wind up...
e|---7---------------------------------------7-----------------7------------|
B|---9----------x---------9---------9--------9-------x---------9-----8------|
G|---8---------11---------9---------9--------8-------11--------8-----8------|
D|---6----------9---------9---------9--------6-------9---------6-----8------|
A|-------------------------------------------------------------------6------|
E|--------------------------------------------------------------------------|


And Chorus

      When Singularity comes                        We will be fully revealed 
e|------------2--------7----------------------------------------------------|
B|---9--------2--------7--------9-----------------5---------4--------5------|
G|---9--------3--------8--------9--------8--------6---------x--------6------|
D|---9--------4--------9--------9--------8--------6---------4--------6------|
A|---x--------4--------9--------7--------6--------4---------4--------4------|
E|---0--------2--------7--------x-------------------------------------------|

  
 Wandering limitless fields  When Singularity comes     
e|----------------------------------2---------7-----------------------------|
B|---4--------------------9---------2---------7-------9-------------5-------|
G|---x--------------------9---------3---------8-------9------8------6-------|
D|---4--------------------9---------4---------9-------9------8------6-------|
A|---4--------------------x---------4---------9-------7------6------4-------|
E|------------------------0---------2---------7-------x---------------------|


We'll be..Neophyte make no mistake we're in this together,  we will be one
e|-----------------------------------------------------------------------7--|
B|------4---------5---------4----------5---------4-----------------------7--|
G|------x---------6---------x----------6---------x-----------------------8--|
D|------4---------6---------4----------6---------4-----------------------9--|
A|------4---------4---------4----------4---------4-----------------------9--|
E|-----------------------------------------------------------------------7--|


When   Sing-       u-       lar-      ah-        ty         comes       **
e|------------------------------------11--------------------7---------------|
B|--------9-----------------4---------12---------9----------7---------------|
G|--------9--------8--------4---------11---------9----------8---------------|
D|--------9--------9--------4---------9----------9----------9---------------|
A|--------11-------9--------6-------------------------------9---------------|
E|-----------------0----------------------------------------7---------------|

When   Sing-       u-       lar-      ah-        ty         comes        **
e|------------------------------------11--------------------7---------------|
B|--------9-----------------4---------12---------9----------7---------------|
G|--------9--------8--------4---------11---------9----------8---------------|
D|--------9--------9--------4---------9----------9----------9---------------|
A|--------11-------9--------6-------------------------------9---------------|
E|-----------------0----------------------------------------7---------------|
            
Submit corrections


        Singularity lessons Hard to play? Try these video lessons and learn fast Singularity lessons
        
↑ Back to top | Tablatures and chords for acoustic guitar and electric guitar, ukulele, drums are parodies/interpretations of the original songs. You may use it for private study, scholarship, research or language learning purposes only