Home » B » Bright Eyes »

Bright Eyes - Poison Oak Bass

Artists:  A B C D E F G H I J K L M N O P Q R S T U V W X Y Z # 

Poison Oak Bass
Version #1
Bright Eyes


Copy URL
Standard Tuning

Intro/Verse
G-----------------------------|
D-----------------------------|
A-------7-----------5~----5-4-| x4
E-5~------5~----5-7-----------|

G----------|
D----------|
A----------|
E-2~----0~-|

Thing after verse
G----------------------------------|
D----------------------------------|
A-----------5~----5-4-----------5~-|
E-5~----5-7-----------5~----5-7----|

Verse
G-----------------------------|
D-----------------------------|
A-------7-----------5~----5-4-| x2
E-5~------5~----5-7-----------|

G----------|
D----------|
A----------|
E-2~----0~-|

Chorus
G--------------------------------------------|
D--------------------------------------------|
A-----------5~----5-4-----------------2~-----| x2
E-5~----5-7-----------2~----2-5-0~---------0-|

Thing after chorus part 1
G---------------------------------------------------|
D---------------------------------------------------|
A-------4-2-4-----------------4-2-4-9~--11~--7~--9~-|
E-5~----------2~----2-4-5~--------------------------|

Thing after chorus part 2
G----------------------|
D----------------------|
A----------------------|
E-0~----2~----0~----2~-|

Chorus x2
after chorus part 1
after chorus part 2
Chorus x2
after chorus part 1

End on
G----
D----
A----
E-5~-
            
Submit corrections

↑ Back to top | Tablatures and chords for acoustic guitar and electric guitar, ukulele, drums are parodies/interpretations of the original songs. You may use it for private study, scholarship, research or language learning purposes only