» » »

Bright Eyes - First Day Of My Life Tabs

Artists:  A B C D E F G H I J K L M N O P Q R S T U V W X Y Z # 

First Day Of My Life Tabs

(ver. 1) Click to play this song!
Bright Eyes
 Rating:
4.3/5 (26 votes)

 First Day Of My Life lessons Tabs too difficult? Try these video lessons and learn fast
 
                [Intro]

e|-----0--0--0--0--|-----0--0-----0-----|-----0--0--0--0--|-----0--0-----0-----|-----1--1-----1-----|
B|-----1--1--1--1--|-----0--0-----0--0--|-----1--1--1--1--|-----1--------1--1--|-----1--1-----1-----|
G|-----0--0--0--0--|-----1-----1--1-----|-----2--2--2--2--|-----2-----2--2-----|-----2--------2--2--|
D|-----2--2--2--2--|-----2--------2-----|-----2--2--2--2--|-----2--------2-----|-----3--------3-----|
A|-3-2-3--3--3--3--|--2--2--------2-----|--0--0--0--0--0--|--0--0--------0-----|-----3-----3--3-----|
E|-----X--X--X--X--|-----0--------0-----|-----X--X--X--X--|-----X--------X-----|--1--1--------1-----|

e|-----3--3----3-----|-----0--0--0--0--|-----0--0-----0-----|
B|-----3--3----3-----|-----1--1--1--1--|-----1--1-----1--1--|
G|-----4-------4--4--|-----0--0--0--0--|-----0--------0-----|
D|-----5-------5-----|-----2--2--2--2--|-----2-----2--2-----|  X2
A|-----5----5--5-----|--3--3--3--3--3--|--3--3--------3-----|
E|--3--3-------3-----|-----X--X--X--X--|-----X--------X-----|


[Verse]  X2

e|-----0--0--0--0--|-----0--0-----0-----|-----0--0--0--0--|-----0--0-----0-----|-----1--1-----1-----|
B|-----1--1--1--1--|-----0--0-----0--0--|-----1--1--1--1--|-----1--------1--1--|-----1--1-----1-----|
G|-----0--0--0--0--|-----1-----1--1-----|-----2--2--2--2--|-----2-----2--2-----|-----2--------2--2--|
D|-----2--2--2--2--|-----2--------2-----|-----2--2--2--2--|-----2--------2-----|-----3--------3-----|
A|--3--3--3--3--3--|--2--2--------2-----|--0--0--0--0--0--|--0--0--------0-----|-----3-----3--3-----|
E|-----X--X--X--X--|-----0--------0-----|-----X--X--X--X--|-----X--------X-----|--1--1--------1-----|

e|-----3--3-----3-----|-----0--0--0--0--|-----0--0-----0-----|
B|-----3--3-----3-----|-----1--1--1--1--|-----1--1-----1--1--|
G|-----4--------4--4--|-----0--0--0--0--|-----0--------0-----|
D|-----5--------5-----|-----2--2--2--2--|-----2-----2--2-----|
A|-----5-----5--5-----|--3--3--3--3--3--|--3--3--------3-----|
E|--3--3--------3-----|-----X--X--X--X--|-----X--------X-----|

e|-----0--0--0--0--|-----0--0-----0-----|-----0--0--0--0--|-----0--0-----0-----|-----2--2-----2-----|
B|-----1--1--1--1--|-----0--0-----0--0--|-----1--1--1--1--|-----1--------1--1--|-----1--1-----1--1--|
G|-----0--0--0--0--|-----1-----1--1-----|-----2--2--2--2--|-----2-----2--2-----|-----2-----2--2-----|
D|-----2--2--2--2--|-----2--------2-----|-----2--2--2--2--|-----2--------2-----|--0--0--------0-----|
A|--3--3--3--3--3--|--2--2--------2-----|--0--0--0--0--0--|--0--0--------0-----|-----X--------X-----|
E|-----X--X--X--X--|-----0--------0-----|-----X--X--X--X--|-----X--------X-----|-----X--------X-----|

e|-----2--2-----2-----|-----3--3-----3-----|-----3--3-----3-----|
B|-----1--1-----1--1--|-----3--3-----3--3--|-----3--3-----3--3--|
G|-----2-----2--2-----|-----4--------4-----|-----4--------4-----|
D|--0--0--------0-----|-----5-----5--5-----|-----5-----5--5-----|   
A|-----X--------X-----|-----5--------5-----|-----5--------5-----|
E|-----X--------X-----|--3--3--------3-----|--3--3--------3-----|


[Chorus]

e|--0----3----|-----0--0--0--0--|-----0--0-----0-----|-----1--1-----1-----|-----3--3-----3-----|
B|--1----3----|-----1--1--1--1--|-----1--1-----1--1--|-----1--1-----1-----|-----3--3-----3-----|
G|--0----4----|-----2--2--2--2--|-----2-----2--2-----|-----2--------2--2--|-----4--------4--4--|
D|--2----5----|-----2--2--2--2--|-----2--------2-----|-----3--------3-----|-----5--------5-----|
A|--3----5----|--0--0--0--0--0--|--0--0--------0-----|-----3-----3--3-----|-----5-----5--5-----|
E|--X----3----|-----X--X--X--X--|-----X--------X-----|--1--1--------1-----|--3--3--------3-----|

e|--0----0----|-----0--0--0--0--|-----0--0-----0-----|-----0--0--0--0--|-----0--0--0--0--|
B|--1----0----|-----1--1--1--1--|-----1--1-----1--1--|-----3--3--3--3--|-----6--6--6--6--|
G|--0----1----|-----2--2--2--2--|-----2-----2--2-----|-----2--2--2--2--|-----5--5--5--5--|
D|--2----2----|-----2--2--2--2--|-----2--------2-----|--3--3--3--3--3--|--6--6--6--6--6--|
A|--3----2----|--0--0--0--0--0--|--0--0--------0-----|-----X--X--X--X--|-----X--X--X--X--|
E|--X----X----|-----X--X--X--X--|-----X--------X-----|-----X--X--X--X--|-----X--X--X--X--|

e|----0--0--0--0--|-----0--0-----0-----|-----0--0--0--0--|-----0--0-----0-----|-----0--0--0--0--|
B|----1--1--1--1--|-----0--0-----0--0--|-----1--1--1--1--|-----1--1-----1--1--|-----3--3--3--3--|
G|----0--0--0--0--|-----1-----1--1-----|-----2--2--2--2--|-----2-----2--2-----|-----2--2--2--2--|
D|----2--2--2--2--|-----2--------2-----|-----2--2--2--2--|-----2--------2-----|--3--3--3--3--3--|
A|-3--3--3--3--3--|--2--2--------2-----|--0--0--0--0--0--|--0--0--------0-----|-----X--X--X--X--|
E|----X--X--X--X--|-----0--------0-----|-----X--X--X--X--|-----X--------X-----|-----X--X--X--X--|

e|-----0--0--8--8--|
B|-----6--6--6--6--|
G|-----5--5--5--5--|
D|--6--6--6--6--6--|
A|-----X--X--X--X--|
E|-----X--X--X--X--|

[Verse]  X2

e|-----0--0--0--0--|-----0--0-----0-----|-----0--0--0--0--|-----0--0-----0-----|-----1--1-----1-----|
B|-----1--1--1--1--|-----0--0-----0--0--|-----1--1--1--1--|-----1--------1--1--|-----1--1-----1-----|
G|-----0--0--0--0--|-----1-----1--1-----|-----2--2--2--2--|-----2-----2--2-----|-----2--------2--2--|
D|-----2--2--2--2--|-----2--------2-----|-----2--2--2--2--|-----2--------2-----|-----3--------3-----|
A|--3--3--3--3--3--|--2--2--------2-----|--0--0--0--0--0--|--0--0--------0-----|-----3-----3--3-----|
E|-----X--X--X--X--|-----0--------0-----|-----X--X--X--X--|-----X--------X-----|--1--1--------1-----|

e|-----3--3-----3-----|-----0--0--0--0--|-----0--0-----0-----|
B|-----3--3-----3-----|-----1--1--1--1--|-----1--1-----1--1--|
G|-----4--------4--4--|-----0--0--0--0--|-----0--------0-----|
D|-----5--------5-----|-----2--2--2--2--|-----2-----2--2-----|
A|-----5-----5--5-----|--3--3--3--3--3--|--3--3--------3-----|
E|--3--3--------3-----|-----X--X--X--X--|-----X--------X-----|

e|-----0--0--0--0--|-----0--0-----0-----|-----0--0--0--0--|-----0--0-----0-----|-----2--2-----2-----|
B|-----1--1--1--1--|-----0--0-----0--0--|-----1--1--1--1--|-----1--------1--1--|-----1--1-----1--1--|
G|-----0--0--0--0--|-----1-----1--1-----|-----2--2--2--2--|-----2-----2--2-----|-----2-----2--2-----|
D|-----2--2--2--2--|-----2--------2-----|-----2--2--2--2--|-----2--------2-----|--0--0--------0-----|
A|--3--3--3--3--3--|--2--2--------2-----|--0--0--0--0--0--|--0--0--------0-----|-----X--------X-----|
E|-----X--X--X--X--|-----0--------0-----|-----X--X--X--X--|-----X--------X-----|-----X--------X-----|

e|-----2--2-----2-----|-----3--3-----3-----|-----3--3-----3-----|
B|-----1--1-----1--1--|-----3--3-----3--3--|-----3--3-----3--3--|
G|-----2-----2--2-----|-----4--------4-----|-----4--------4-----|
D|--0--0--------0-----|-----5-----5--5-----|-----5-----5--5-----|   
A|-----X--------X-----|-----5--------5-----|-----5--------5-----|
E|-----X--------X-----|--3--3--------3-----|--3--3--------3-----|


[Chorus]

e|--0----3----|-----0--0--0--0--|-----0--0-----0-----|-----1--1-----1-----|-----3--3-----3-----|
B|--1----3----|-----1--1--1--1--|-----1--1-----1--1--|-----1--1-----1-----|-----3--3-----3-----|
G|--0----4----|-----2--2--2--2--|-----2-----2--2-----|-----2--------2--2--|-----4--------4--4--|
D|--2----5----|-----2--2--2--2--|-----2--------2-----|-----3--------3-----|-----5--------5-----|
A|--3----5----|--0--0--0--0--0--|--0--0--------0-----|-----3-----3--3-----|-----5-----5--5-----|
E|--X----3----|-----X--X--X--X--|-----X--------X-----|--1--1--------1-----|--3--3--------3-----|

e|--0----0----|-----0--0--0--0--|-----0--0-----0-----|-----0--0--0--0--|-----0--0--0--0--|
B|--1----0----|-----1--1--1--1--|-----1--1-----1--1--|-----3--3--3--3--|-----6--6--6--6--|
G|--0----1----|-----2--2--2--2--|-----2-----2--2-----|-----2--2--2--2--|-----5--5--5--5--|
D|--2----2----|-----2--2--2--2--|-----2--------2-----|--3--3--3--3--3--|--6--6--6--6--6--|
A|--3----2----|--0--0--0--0--0--|--0--0--------0-----|-----X--X--X--X--|-----X--X--X--X--|
E|--X----X----|-----X--X--X--X--|-----X--------X-----|-----X--X--X--X--|-----X--X--X--X--|

e|----0--0--0--0--|-----0--0-----0-----|-----0--0--0--0--|-----0--0-----0-----|-----0--0--0--0--|
B|----1--1--1--1--|-----0--0-----0--0--|-----1--1--1--1--|-----1--1-----1--1--|-----3--3--3--3--|
G|----0--0--0--0--|-----1-----1--1-----|-----2--2--2--2--|-----2-----2--2-----|-----2--2--2--2--|
D|----2--2--2--2--|-----2--------2-----|-----2--2--2--2--|-----2--------2-----|--3--3--3--3--3--|
A|-3--3--3--3--3--|--2--2--------2-----|--0--0--0--0--0--|--0--0--------0-----|-----X--X--X--X--|
E|----X--X--X--X--|-----0--------0-----|-----X--X--X--X--|-----X--------X-----|-----X--X--X--X--|

e|-----0--0--8--8--|
B|-----6--6--6--6--|
G|-----5--5--5--5--|
D|--6--6--6--6--6--|
A|-----X--X--X--X--|
E|-----X--X--X--X--|

[Outro]


e|----0--0--0--0--|-----0--0-----0-----|-----0--0--0--0--|-----0--0-----0-----|---------0---------|
B|----1--1--1--1--|-----0--0-----0--0--|-----1--1--1--1--|-----1--1-----1--1--|-----3-------3-----|
G|----0--0--0--0--|-----1-----1--1-----|-----2--2--2--2--|-----2-----2--2-----|---2---2---2---2---|
D|----2--2--2--2--|-----2--------2-----|-----2--2--2--2--|-----2--------2-----|--3-3-3-3-3-3-3-3--|
A|-3--3--3--3--3--|--2--2--------2-----|--0--0--0--0--0--|--0--0--------0-----|-------------------|
E|----X--X--X--X--|-----0--------0-----|-----X--X--X--X--|-----X--------X-----|-------------------|

e|---------8---8-----|-----0--0--0--0--|-----0--0-----0-----|-----0--0--0--0--|-----0--0-----0-----|
B|-----6-------------|-----1--1--1--1--|-----0--0-----0--0--|-----1--1--1--2--|-----1--1-----1--1--|
G|---5---5---5---5---|-----0--0--0--0--|-----1-----1--1-----|-----2--2--2--2--|-----2-----2--2-----|
D|--6-6-6-6-6-6-6-6--|-----2--2--2--2--|-----2--------2-----|-----2--2--2--1--|-----2--------2-----|
A|-------------------|--3--3--3--3--3--|--2--2--------2-----|--0--0--0--0--0--|--0--0--------0-----|
E|-------------------|-----X--X--X--X--|-----0--------0-----|-----X--X--X--X--|-----X--------X-----|

e|---------0---------|---------8---8-----|----0-------------|
B|-----3-------3-----|-----6-------------|----1-------------|
G|---2---2---2---2---|---5---5---5---5---|----0-------------|
D|--3-3-3-3-3-3-3-3--|--6-6-6-6-6-6-6-6--|----2-------------|
A|-------------------|-------------------|----3-------------|
E|-------------------|-------------------|----3-------------|
            
Submit corrections


        First Day Of My Life lessons Hard to play? Try these video lessons and learn fast First Day Of My Life lessons
        
↑ Back to top | Tablatures and chords for acoustic guitar and electric guitar, ukulele, drums are parodies/interpretations of the original songs. You may use it for private study, scholarship, research or language learning purposes only