» » »

Brian Mcknight - Marry Your Daughter Tabs

Artists:  A B C D E F G H I J K L M N O P Q R S T U V W X Y Z # 

Marry Your Daughter Tabs

(ver. 1) Click to play this song!
Brian Mcknight
 Rating:
4/5 (4 votes)


 Marry Your Daughter lessons Tabs too difficult? Try these video lessons and learn fast
 
                Arranged by: Ralph Jay Triumfo

Capo on 4th Fret

Verse:

Sir I'm a bit nervous about being here today,
Still not quite sure what I'm going to say.
e|--------------------------------------------------------|
B|-----0-0-0-0------------0-------------------------------|
G|---0----------2-0-2-2-2---2-2-0-0-0-0-0-0-0-0h2---------|
D|------------------0-----0---------------0---------------|
A|----------------------------3-----3---------------------|
E|-----3-----3--------------------------------------------|


So bare with me please if I take up too much of your time.
e|--------------------------------------------------------|
B|-----0-0-0-0------------0-------------------------------|
G|---0----------2-0-2-2-2---2-0-----0---------------------|
D|------------------0-----0-----2-0-----4-5-7-------------|
A|------------------------------3---3---5---5-------------|
E|-----3-----3--------------------------------------------|


See in this box is a ring for your oldest,
See in this box is a ring for your oldest,
e|--------------------------------------------------------|
B|-----0-0-0-0------------0-----------------------0-0-----|
G|--------------2-0-2-2-2---2-2-2-0-0-0-0-0-0-0-2-----2---|
D|------------------0-----0-------------------0-----0-----|
A|------------------------------3-----3-------------------|
E|-----3------3-------------------------------------------|

It would be such a relief if I knew we were on the same side.
'Cuz very soon I'm hoping that I,
e|--------------------------------------------------------|
B|-------0-0-0-0------------0-----------------------------|
G|---0h2----------2-0-2-2-2---2-0-----0-0-0-0-0-0---------|
D|---------------------0----0-----2-0------------4-2-0----|
A|--------------------------------3---3---5-----5-----5---|
E|-------3------3-----------------------------------------|



Chorus:

Can marry your daughter,And make her my wife.
I want her to be the only girl that I love for the rest of my life,
e|-----------0--------------------------------------------|
B|---0-1-3-3---0-1-3-3-0-1-3-1-1-0-0------3-1-0-0---------|
G|-----------------------------------2--0---------2-0-----|
D|-------------------0-0------------------------0---------|
A|-------------------------0-------0------3---------------|
E|---------3---3------------------------------------------|

And give her the best of me till the day that I die.
e|--------------------------------------------------------|
B|---0-0-0-0-0-------------0-----------0-------1----0-1-3-|
G|-------------2-2-----0h2---2p0-----0---0---0---0--------|
D|-----------0-----0h2-----------2--0-----0-2-----2-0-----|
A|---------------------------0-----2-------3--------------|
E|---3-3--------------------------------------------------|

I'm gonna marry your princess and make her my queen.
She'll be the most beautiful bride that I've ever seen.
I can't wait to smile,
e|-----0--------------------------------------------------|
B|---3---0-1-3-3-0-1-3-3-1-1-1-0-------------------1-0----|
G|-------------------------------2-0-0-0-0-0-0-0-2--------|
D|-------------0-0----------------------------------------|
A|---------------------0-----0-----3-----3-----3-----2----|
E|---3---3------------------------------------------------|

When she walks down the aisle, On the arm of her father,
On the day that I marry your daughter.
e|--------------------------------------------------------|
B|-------0-----------0-0---------1-1-1-0------------------|
G|---0-2---2p0---0-2-----2---0h2---------2-2-0------------|
D|-------------2------------0--------0--------------------|
A|---2-----------------0---2-----3------------------------|
E|---------0-------------------------------3--------------|

Outro:

e|---3-------5-3-5h7-7-5-3p2-5p3-7p5-8---------|
B|-----3-3-3-----------------------------------|
G|---------------------------------------------|
D|-------0-----0---------1---------------------|
A|-------------------3-------------------------|
E|---3-----------------------------------------|

Note: Sabayan nyo lang yung video ko para makuha nyo yung tyempo at ibang adlib. Thanks. 
            
Submit corrections



        Marry Your Daughter lessons Hard to play? Try these video lessons and learn fast Marry Your Daughter lessons
        
↑ Back to top | Tablatures and chords for acoustic guitar and electric guitar, ukulele, drums are parodies/interpretations of the original songs. You may use it for private study, scholarship, research or language learning purposes only