Home » B » Brian Eno »

Brian Eno - Ill Come Running Tabs

Artists:  A B C D E F G H I J K L M N O P Q R S T U V W X Y Z # 

Ill Come Running Tabs

(ver. 1) Click to play this song!
Brian Eno
Tuning: EADGBe

e|------------------------------------------------------------------------------|
B|------------------------------------------------------------------------------|
G|-16-14-13------13-14-13---14---13-14-13---14-13-14-13-14-13-14-13-16----------|
D|------------------------------------------------------------------------------|
A|----------14------------------------------------------------------------------|
E|------------------------------------------------------------------------------|

e|----------------17-19-17-16---------------------------------------------------|
B|------------------------------------------------------------------------------|
G|-16-14-13-14-16-------------16-16-14-13----13-14-13-16--13-14-13-----13-14-16-|
D|------------------------------------------------------------------------------|
A|----------------------------------------14-----------------------14-----------|
E|------------------------------------------------------------------------------|

e|------------------------------------------------------------------------------|
B|------------------------------------------------------------------------------|
G|-14-13-14-13-14-13-14-16--14-13-13-14-13-14-13-16-14----14-13-----------------|
D|------------------------------------------------------------------------------|
A|-----------------------------------------------------14-------14--------------|
E|------------------------------------------------------------------------------|

e|------------------------------------------------------------------------------|
B|------------------------------------------------------------------------------|
G|-----------------------------16-----------------------------------------------|
D|------------------------------------------------------------------------------|
A|--14-12-14-12-11----11-12-14--------------------------------------------------|
E|-----------------12-----------------------------------------------------------|
            
Submit corrections

↑ Back to top | Tablatures and chords for acoustic guitar and electric guitar, ukulele, drums are parodies/interpretations of the original songs. You may use it for private study, scholarship, research or language learning purposes only