Home » B » Breathe »

Breathe - What Would You Say Tabs

Artists:  A B C D E F G H I J K L M N O P Q R S T U V W X Y Z # 

What Would You Say Tabs

(ver. 1) Click to play this song!
Breathe
Intro

e|---------1----x----1------------x-------------------------------------------------|
B|---------2----x----2-------4----x----4^6^4----------------------------------------|
G|--------------x------------5----x----5---------6^5--------------------------------|
D|--------------x-----------------x-------------------------------------------------|
A|--------------x-----------------x-------------------------------------------------|
E|----2---------x------------4----x-------------------------------------------------|

e|---------1----x----1------------x----4---------4/6--------------------------------|
B|---------2----x----2-------4----x----4^6^4----------------------------------------|
G|--------------x------------5----x----5--------------------------------------------|
D|--------------x-----------------x-------------------------------------------------|
A|--------------x-----------------x-------------------------------------------------|
E|----2---------x------------4----x-------------------------------------------------|
            
Submit corrections

↑ Back to top | Tablatures and chords for acoustic guitar and electric guitar, ukulele, drums are parodies/interpretations of the original songs. You may use it for private study, scholarship, research or language learning purposes only