Home » B » Brand New Heavies »

Brand New Heavies - Spend Some Time Bass

Artists:  A B C D E F G H I J K L M N O P Q R S T U V W X Y Z # 

Spend Some Time Bass

(ver. 1) Click to play this song!
Brand New Heavies
 Rating:
4/5 (4 votes)
                Bass Player:Andrew Levy

This song consists of two main parts namely verse and chorus.
Although simple it is a very good song and be sure to keep the
chorus octave pattern tight and strong. There is also a very
simple M8.
This is just a basic transcription and does not include all the
fills. The notes in brackets are not always played.

Note: ~ indicates vibrato
     Slide in from 16th fret E string

Verse/Intro

G:|-----------------|-----------------|-----------------|
D:|-----------------|-----------------|----------4------|
A:|-4(4)-----4------|-4-(4)------4----|----4---4---4----|
E:|-----------4-4---|-------4------4-3|-2-------------2-|

G:|-----------------||
D:|-------7--6------||repeat w/ad-lib.
A:|----7--------6---||
E:|-5--------------4||

Chorus

G:|---6---6---6-----|---6--------6----|-----------------|
D:|-----------------|-------6---------|---4---4---4-----|
A:|-4---4---4-------|-4--------4------|-----------------|
E:|--------------4--|-----4--------4--|-2---2---2----2--|

G:|-----------------||
D:|----7-------9----||repeat w/ad-lib.
A:|-----------------||
E:|-5-----5-7-----7-||

Sometimes in the second bar of the chorus this is played...

G:|---6--------------||
D:|-------6----------||
A:|-4--------4-------||
E:|-----4-------4--3-||

M8
			      ~
G:|-----------------|-----------------|-----------------|
D:|-----------------|-----4/6-4-------|-----------------|
A:|-4---4---x2---2-3|-4-4-------------|-4---4---x2---2-3|
E:|-----------------|-----------------|-----------------|
	     ~
G:|-----------------||
D:|-----------------||repeat
A:|-4-----------(x2)||
E:|----2--3--4------||

If you have any comments or corrections just e-mail me at:
            
Submit corrections

↑ Back to top | Tablatures and chords for acoustic guitar and electric guitar, ukulele, drums are parodies/interpretations of the original songs. You may use it for private study, scholarship, research or language learning purposes only