Home » B » Brand New Heavies »

Brand New Heavies - Put The Funk Back In It Bass

Artists:  A B C D E F G H I J K L M N O P Q R S T U V W X Y Z # 

Put The Funk Back In It Bass

(ver. 1) Click to play this song!
Brand New Heavies
 Rating:
4/5 (4 votes)
                Bass Player:Andrew Levy

A simple enough funk groove. Very laid back. If you play it live
try not to push it to much and make sure you got a good drummer
to keep it rock solid. Anyway here are th 2 basic riffs.

Main Riff

G:|-----------------|-----------------||
D:|-----------------|-----------------|| repeat with
A:|---------6-6---6-|-8-88------------|| variations
E:|-8-----------8---|------55-66-55-77||

Riff 2

G:|-----------------|-----------------|-----------------|
D:|----3--3-3-1-0-3-|----3--3-3-1-0-3-|----3--3-3-1-0-3-|
A:|-----------------|-----------------|-----------------|
E:|-1---------------|-1---------------|-1---------------|

G:|-----------------|-----------------|-----------------|
D:|----3--3-3-1-0-3-|----5--5-5---3--5|----5--5-5---3--5|
A:|-----------------|-----------5--5--|-----------5--5--|
E:|-1---------------|-3---------------|-3---------------|

G:|-----------------|-----------------||
D:|----5--5-5---3--5|-----------------|| w/ad-lib's
A:|-----------5--5--|-----------------||
E:|-3---------------|-3---------------||

If you have any comments or corrections just e-mail me at:
            
Submit corrections

↑ Back to top | Tablatures and chords for acoustic guitar and electric guitar, ukulele, drums are parodies/interpretations of the original songs. You may use it for private study, scholarship, research or language learning purposes only