Home » B » Brand New Heavies »

Brand New Heavies - Have A Good Time Bass

Artists:  A B C D E F G H I J K L M N O P Q R S T U V W X Y Z # 

Have A Good Time Bass

(ver. 1) Click to play this song!
Brand New Heavies
Bass Player:Andrew Levy

This groove is mainly a jam track but very funky. The unison
of bass and sax are excellent and are crucial to get correct,
listen carefully to the track first. Only the basic pattern is
shown here, I have not done every little fill.

Riff 1(Unison w/sax 3rd time)

G:|-----------------|-----------------|-----------------|
D:|-----------------|-----------------|---------------4-|
A:|-6-6-----------6-|---------------4-|-66-6-6-6-6-6-6-6|
E:|-----------------|-4-4---------4---|-----------------|

G:|-----------------||
D:|-----------------||repeat w/ad-lib.
A:|--------------4--||
E:|-4-4--------44-4-||

Riff 2(Unison w/Sax)

G:|-----------------|-----------------|-----------------|
D:|-----------------|-----------------|----8--6--4-4h6--|
A:|-6-6-----------6-|---------------4-|-6---------------|
E:|-----------------|-4-4---------4---|-----------------|

G:|-----6-5---------||
D:|---------x6--4---||
A:|---------------x4||
E:|-4-4-------------||

Riff 3(Leading into sax solo section)

G:|-----------------|-----------------|-----------------|
D:|-----------------|-----------------|-----------------|
A:|-6-6-----------6-|---------------4-|-66-6-6-6-6-6-6-6|
E:|-----------------|-4-4---------4---|-----------------|

G:|-----------------||
D:|-----------------||May not be completely accurate on how
A:|-6-6-6-6-6-6-----||many Eb's there are but go w/the feeling.
E:|-------------x4--||

Sax solo

In this section it is just pure jamming in the two chords.
Andrew levy does some chromatic runs etc. This is just a
rough transcription.

G:|-----------------|-----------------||
D:|--------------4-5|-6--6------------||repeat w/ad-libs.
A:|-6-----x4-6-6----|-----3-3-44-55---||
E:|-----------------|-----------------||

If you have any comments or corrections just e-mail me at:
            
Submit corrections

↑ Back to top | Tablatures and chords for acoustic guitar and electric guitar, ukulele, drums are parodies/interpretations of the original songs. You may use it for private study, scholarship, research or language learning purposes only