Home » B » Brand New Heavies »

Brand New Heavies - Dream Come True Bass

Artists:  A B C D E F G H I J K L M N O P Q R S T U V W X Y Z # 

Dream Come True Bass

(ver. 1) Click to play this song!
Brand New Heavies
 Rating:
4/5 (4 votes)
                The Brand New Heavies
*********************

Bass Player:Andrew Levy

Hi,
   Here's a classic "B'n'H" track. There are a lot of different
sections in this track so bare with me. I will not tab out the
fills that occur through the verse because it will take ages, I
will just tab the basic riff.

ENJOY
Si Merrick

Intro (7 Bars Drums etc...)

G:|-----------------|-----------------|-----------------|
D:|-----------------|-----------------|-----------------|
A:|-------------12\-|-2---------------|-----------------|
E:|-----------------|-----------------|-----------------|

G:|-----------------|-----------------|-4---------------|
D:|-----------------|-----------------|-----------------|
A:|-0---------------|-----------------|-----------------|
E:|-----------------|-----------------|-----------------|

G:|-------------4---|-2---------------|-----------------|
D:|-----------------|--------2--------|-----------------|
A:|-----------------|-----------------|-0---------------|
E:|-----------------|-----------------|-----------------|

G:|-----------------|-----------------|-----------------|
D:|-----------------|-----------------|-----------------|
A:|-----------------|----2------------|-0-0---0---------|
E:|-----------------|-----------------|-----------------|

G:|-----------------|-----------------||
D:|-----------------|-----------------||
A:|----2------------|-0-0---0---------||
E:|-----------------|-----------------||

Pre-Verse

G:|------2-3-4------|--------------2--||
D:|----4-------4----|-2---2---------x-||x5
A:|-2-------------2-|--------0-0-0---1||
E:|-----------------|-----------------||

G:|------2-3-4------|-----------22-22-||
D:|----4-------4----|-2---2-----------||
A:|-2-------------2-|-------0-0-------||
E:|-----------------|-----------------||

Verse 1&2

G:|------2-3-4------|--------------2--||
D:|----4-------4----|-2---2---------x-||x7
A:|-2-------------2-|--------0-0-0---1||
E:|-----------------|-----------------||

G:|------2-3-4------|-----------------||
D:|----4-------4----|-2---2-----------||
A:|-2-------------2-|-------0-0-------||
E:|-----------------|------------2----||

Chorus 1&2

G:|------2-3-4------|--------------2--|------2-3-4------|
D:|----4-------4----|-2---2---------x-|----4-------4----|
A:|-2-------------2-|--------0-0-0---1|-2-------------2-|
E:|-----------------|-----------------|-----------------|

G:|--------------2--|------2-3-4------|--------------2--|
D:|-2---2---------x-|----4-------4----|-2---2---------x-|
A:|--------0-0-0---1|-2-------------2-|--------0-0-0---1|
E:|-----------------|-----------------|-----------------|

G:|------2-3-4------|-----------22-22-||
D:|----4-------4----|-2---2-----------||
A:|-2-------------2-|-------0-0-------||
E:|-----------------|-----------------||

Horn Interlude 1

G:|------2-3-4------|--------------2--|------2-3-4------|
D:|----4-------4----|-2---2---------x-|----4-------4----|
A:|-2-------------2-|--------0-0-0---1|-2-------------2-|
E:|-----------------|-----------------|-----------------|

G:|-----------2-----|------2-3-4------|--------------2--|
D:|-2---2---------4-|----4-------4----|-2---2---------x-|
A:|-------0-0-------|-2-------------2-|--------0-0-0---1|
E:|-------------2---|-----------------|-----------------|

G:|------2-3-4------|-----------------||
D:|----4-------4----|-2---2--22-------||
A:|-2-------------2-|-----------00-00-||
E:|-----------------|-----------------||

Breakdown 1

G:|-----------------|-----------------|-----------------|
D:|-------------4---|-66--------------|-------------4---|
A:|-----------6---6-|-----------------|-----------6---6-|
E:|-4---------------|-----------------|-4----4----------|

G:|-----------------||
D:|-66--------------||x2
A:|-----------------||
E:|-----------------||

Horn Interlude 2

G:|------2-3-4------|--------------2--|------2-3-4------|
D:|----4-------4----|-2---2---------x-|----4-------4----|
A:|-2-------------2-|--------0-0-0---1|-2-------------2-|
E:|-----------------|-----------------|-----------------|

G:|-----------2-----|------2-3-4------|--------------2--|
D:|-2---2---------4-|----4-------4----|-2---2---------x-|
A:|-------0-0-------|-2-------------2-|--------0-0-0---1|
E:|-------------2---|-----------------|-----------------|

G:|------2-3-4------|--------------234|----------------||
D:|----4-------4----|-2---2-------4---|----------------||
A:|-2-------------2-|-------0-0-0-----|----------------||
E:|-----------------|-----------------|----------------||

Verse 3

G:|------2-3-4------|--------------2--|------2-3-4------|
D:|----4-------4----|-2---2---------x-|----4-------4----|
A:|-2-------------2-|--------0-0-0---1|-2-------------2-|
E:|-----------------|-----------------|-----------------|

G:|--------------2--|------2-3-4------|--------------2--|
D:|-2---2---------x-|----4-------4----|-2---2---------x-|
A:|--------0-0-0---1|-2-------------2-|--------0-0-0---1|
E:|-----------------|-----------------|-----------------|

G:|------2-3-4------|--------------2--||
D:|----4-------4----|-2---2---------x-||
A:|-2-------------2-|--------0-0-0---1||
E:|-----------------|-----------------||

Chorus 3

G:|------2-3-4------|--------------2--||
D:|----4-------4----|-2---2---------x-||x7
A:|-2-------------2-|--------0-0-0---1||
E:|-----------------|-----------------||

G:|------2-3-4------|-----------22-22-||
D:|----4-------4----|-2---2-----------||
A:|-2-------------2-|-------0-0-------||
E:|-----------------|-----------------||

Horn Interlude 3

G:|------2-3-4------|--------------2--|------2-3-4------|
D:|----4-------4----|-2---2---------x-|----4-------4----|
A:|-2-------------2-|--------0-0-0---1|-2-------------2-|
E:|-----------------|-----------------|-----------------|

G:|-----------2-----|------2-3-4------|--------------2--|
D:|-2---2---------4-|----4-------4----|-2---2---------x-|
A:|-------0-0-------|-2-------------2-|--------0-0-0---1|
E:|-------------2---|-----------------|-----------------|

G:|------2-3-4------|---------22-x-22-||
D:|----4-------4----|-2---2-2---------||
A:|-2-------------2-|-----------------||
E:|-----------------|-----------------||

Breakdown 2

G:|-----------------|-----------------|-------------4---|
D:|-----------------|-----------------|-----------------|
A:|-2---------------|-0---------------|-2---------------|
E:|-----------------|-----------------|-----------------|

G:|-2---------------||
D:|---------2-------||
A:|-------------0---||
E:|-----------------||

Guitar Solo/Horn Section/Oh,Oh,Yeahs,Yeahs

G:|------2-3-4------|--------------2--|------2-3-4------|
D:|----4-------4----|-2---2---------x-|----4-------4----|
A:|-2-------------2-|--------0-0-0---1|-2-------------2-|
E:|-----------------|-----------------|-----------------|

G:|--------------2--||
D:|-2---2---------x-||x5
A:|--------0-0-0---1||
E:|-----------------||

G:|------2-3-4------|--------------2--|------2-3-4------|
D:|----4-------4----|-2---2---------x-|----4-------4----|
A:|-2-------------2-|--------0-0-0---1|-2-------------2-|
E:|-----------------|-----------------|-----------------|

G:|----------22-x-22||
D:|-2---2-----------||
A:|-------00--------||
E:|-----------------||

Latin Keyboard Section

G:|-----------------|-----------------|-----------------|
D:|-----------------|-----------------|-----------------|
A:|-----------------|-------------2---|-----------------|
E:|-----------------|----------2------|-----------------|

G:|-----------------|-----------------|-----------------|
D:|-----------------|-----------------|-----------------|
A:|-------------2---|-----------------|--------------2--|
E:|----------2------|-----------------|---------22--2---|

G:|-----------------|-----------------||
D:|-----------------|-----------------||
A:|-----------------|-----------------||
E:|-----------------|-----------------||

Latin/Samba

G:|-----------------|-44--------------||
D:|---44----44---22-|-----------------||x3
A:|-2----22---------|-----00---00----2||
E:|-----------------|-----------------||

1st&2nd Times

G:|-----------------|-----------------||
D:|---44------44----|-----------------||
A:|-2------22------0|-0--------------2||
E:|-----------------|----22--2-2--22--||

3rd Time

G:|-----------------|-----------------||
D:|---44------44----|-----------------||
A:|-2------22------0|-0---------------||
E:|-----------------|----22--222--x22-||

House Section (4 bars Keys)

G:|-----------------|-----------------|-----------------|
D:|-----------------|-----------------|-----------------|
A:|-2----2----------|-0----0----------|-2----2----------|
E:|--------3--3---3-|--------2--2---2-|--------3--3---3-|

G:|-----------------||
D:|-----------------||x4
A:|-0----0----------||
E:|--------2--2---2-||

Breakdown 3

G:|-----------------|----------2h4----|-----------------|
D:|-----------------|--------4-----2h4|-----------------|
A:|-2---------------|-----------------|-2---------------|
E:|-----------------|-----------------|-----------------|

G:|----------2h4----|-----------------|----------2h4----|
D:|--------4-----2h4|-----------------|--------4-----2h4|
A:|-----------------|-2---------------|-----------------|
E:|-----------------|-----------------|-----------------|

G:|-----------------|-----------------||
D:|-----------------|-----------------||
A:|-2---------------|-0--0--0---------||
E:|-----------------|-----------------||

Latin/Samba Outro

G:|-----------------|-44--------------||
D:|---44----44---22-|-----------------||x3
A:|-2----22---------|-----00---00----2||
E:|-----------------|-----------------||

1st Time

G:|-----------------|-----------------||
D:|---44------44---2|-----------------||
A:|-2------22-------|-0--------------2||
E:|-----------------|----22--2-2--22--||

2nd Time

G:|-----------------|---44----22---222||
D:|---44------44---2|-2-----------2---||
A:|-2------22-------|-------0---------||
E:|-----------------|-----------------||

Finished! As it's got loads of sections here is the structure!

//Intro/Pre-Verse/Verse 1/Chorus 1/Verse 2/Chorus 2/
Horn Interlude 1/Breakdown 1/Horn Interlude 2/Verse 3/
Chorus 3/Horn Interlude 3/Breakdown 2/Guitar Solo.../
Latin Keyboard Section/Latin-Samba/1st&2nd Times/Latin-Samba/
1st&2nd Times/Latin-Samba/3rd Time/House Section/Breakdown 3/
Latin-Samba Outro/1st Time/Latin-Samba Outro/2nd Time//

That's one hell of a song!

If you have any comments or corrections just e-mail me at:
            
Submit corrections

↑ Back to top | Tablatures and chords for acoustic guitar and electric guitar, ukulele, drums are parodies/interpretations of the original songs. You may use it for private study, scholarship, research or language learning purposes only