Home » B » Brand New Heavies »

Brand New Heavies - Crying Water Bass

Artists:  A B C D E F G H I J K L M N O P Q R S T U V W X Y Z # 

Crying Water Bass

(ver. 1) Click to play this song!
Brand New Heavies
Bass Player:Andrew Levy

This is just a basic transcription of the song and I have not
included all of the fills. It has three basic main riffs one
of which includes some slap&pop technique.

Intro/Guitar Solo(Slap&pop)

G:|---7---7---7---8-|---9---9---------||
D:|-----------------|-----------7-----||
A:|-5-------5---6---|-7---------------||
E:|-----------------|---------5-----1-||

Verse/Chorus

G:|-----------------|---------7---9---||
D:|-----------------|-----------------|| repeat w/ad-lib's.
A:|-5---------------|-------5-------3/||
E:|--------0---1----|-3---------------||

Bridge

G:|----------7---9--|-----------------|--------7-7/9-7/9|
D:|-----------------|-----------------|-----------------|
A:|-5------5--------|-----------------|----3/5----------|
E:|-----------------|-6-------0---1---|-3---------------|

G:|-----------------||
D:|-----------------|| ad-lib.
A:|-----------------||
E:|-5------3---5----||

That's basically it! Just ad-lib. your way through it.

If you have any comments or corrections just e-mail me at:
            
Submit corrections

↑ Back to top | Tablatures and chords for acoustic guitar and electric guitar, ukulele, drums are parodies/interpretations of the original songs. You may use it for private study, scholarship, research or language learning purposes only