Home » B » Brandi Carlile »

Brandi Carlile - I Belong To You Tabs

Artists:  A B C D E F G H I J K L M N O P Q R S T U V W X Y Z # 

I Belong To You Tabs

(ver. 1) Click to play this song!
Brandi Carlile
Tuning: Standard
Capo: 4

Intro:
    G              C
e|----------------------------------------------|
B|----------------------------------------------|
G|-----0----0----0--------0------0-----0-----0--|
D|----0----0----0--------0---0h2---0h2---0h2----| (2x)
A|-----------------0-2-3------------------------|
E|--0----2----3---------------------------------|

    G               C                G                C
e|----------------------------------------------------------------------------------------|
B|----------------------------------------------------------------------------------------|
G|-----0---0---0-------0---0---0---0----0---0---0-------0---0---0---0---0---0---0---0---0-|
D|----0---0---0-------0---0---0---0----0---0---0-------0---0---0---0---0---0---0---0---0--|
A|--------------0-2-3---3---3---3-----------------0-2-3---3---3---3---3---3---3---3---2---|
E|--0---2---3------------------------0---2---3--------------------------------------------|

Verse:

    G               C                  C       G      D/F#     Em
e|-----------------------------------------------------------------------|
B|-----------------------------------------------------------------------|
G|-----0---0---0----------0---0---0---0---0---0---0---0---2---2---0----0-|
D|----0---0---0----------0---0---0---0---2---2---0---0---0---0---2----2--|
A|---------------0--2--3---3---3---3---3---3-------------------------2---|
E|--0---2---3----------------------------------3---3---2---2---0---------|
 "Last night I had..................killed...save.....you.....shoe......." 

    C       G        C  C/B  Am               D/F#              G
e|------------------------------------------------------------------------------------------------|
B|------------------------------------------------------------------------------------------------|
G|-----0---0---0---0----0---0---2---2---2---2-----2---2---2---2---0---0---0-----0---0---0---0---0-|
D|----2---2---0---0----0---0---2---2---2---2-----0---0---0---0---0---0---0-----0---0---0---0---0--|
A|--3---3------------3---2---0---0---0---0---------------------------------0h2--------------------|
E|----------3---3-------------------------------2---2---2---2---3---3---3---------3---3---3---3---|
 ".clip....walk.....I...I..too..........I woke up..............tell..............................."

Repeat Verse Tab ("Today I sang the same damn tune as you...")

Chorus:

  Csus2           D/F#             Em               C
e|-------------------------------------------------------------------|
B|-------------------------------------------------------------------|
G|----0---0---0---0---2---2---2---2---0---0---0---0----0---0---0---0-|
D|---0---0---0---0---0---0---0---0---2---2---2---2----2---2---2---2--|
A|-3---3---3---3-----------------------2-------2----3---3---3---3----|
E|-----------------2---2---2---2---0-------0-------------------------|
 "I know I......spending.........too much..........you..............."

   C              D/F#             Bm             Em
e|------------------------------------------------------------------|
B|------------------------------------------------------------------|
G|----0---0---0---0---2---2---2---2---4---4---4---4---0---0---0---0-|
D|---2---2---2---2---0---0---0---0---4---4---4---4---2---2---2---2--|
A|-3---3---3---3-------------------2---2---2---2-----------2---2----|
E|-----------------2---2---2---2-------------------0---0------------|
 "time...........don't..........together.......we do..............if"

   C             D/F#            Bm              Em               C
e|-----------------------------------------------------------------------------------|
B|-----------------------------------------------------------------------------------|
G|---0---0---0---0---2---2---2---2---4---4---4---4---0---0---0---0---0---0---0---0---|
D|--2---2---2---2---0---0---0---0---4---4---4---4---2---2---2---2---2---2---2---2----|
A|-3--3---3---3-------------------2---2---2---2-----------2---2---3---3---3---3------|
E|----------------2---2---2---2-------------------0---0------------------------------|
 "I had.......yesterdays........give.........you too......................I belong to"

   G             Csus2             G             Csus2   
e|----------------------------------------------------------------------------------|
B|----------------------------------------------------------------------------------|
G|----0---0---0-------0---0---0---0---0---0---0-------0---0---0---0---0---0---0---0-|
D|---0---0---0-------0---0---0---0---0---0---0-------0---0---0---0---0---0---0---0--|
A|-------------0-2-3---3---3---3---------------0-2-3---3---3---3---3---3---3---2----|
E|-0---2---3-----------------------0---2---3----------------------------------------|

Verse ("I see the world the exact same way that you do...")

Chorus

Last Verse (Much Softer)

  G               C             C      G     D/F#  Em     C     G     C  C/B  Am   D/F#    G       G  D/F# 
e|--------------------------------------------2-----0-----x-----3-------------------2------3-------3---2-|
B|----------------------------------1-----3---3-----0-----1-----3--------0---0---1--3------3-------3---3-|
G|----0---0---0---------------------0-----0---2-----0-----0-----0-------2---0---2---2------0-------0---2-|
D|---0---0---0----------------------2-----0---0-----2-----2-----0--------------2----0------0-------0---0-|
A|-------------0-2-3(let ring)---3------------0-----2-----3-----2-----3---2---0-----0------2--0h2--2---0-|
E|-0---2---3---------------------------3------2-----0-----x-----3-------------------2------3-------3---2-|
 "I'm gonna....as you.........golden..hold..howl..moon..scr*pe.tired..I.come.you.scared...miss..........."

(The rest is just regular strum patterns and chords.)

Start soft just strumming each chord once and letting them ring.
The strum pattern changes pretty drastically once the song picks up around the third bridge.

            Em      C 
I belong to you now
             G     D/F#
I belong to you           (9x)

On the 9th time, end on the C and let it ring through last "I belong to you."            
Submit corrections

↑ Back to top | Tablatures and chords for acoustic guitar and electric guitar, ukulele, drums are parodies/interpretations of the original songs. You may use it for private study, scholarship, research or language learning purposes only