» » »

Boys Like Girls - Great Escape Tabs

Artists:  A B C D E F G H I J K L M N O P Q R S T U V W X Y Z # 

Great Escape Tabs

(ver. 3) Click to play this song!
Boys Like Girls
 Rating:
4/5 (9 votes)


 Great Escape lessons Tabs too difficult? Try these video lessons and learn fast
 
                Boys Like Girls
"The Great Escape"

Great song, was surprised not to see it up here...it's in standard tuning. Figure out 

Intro Guitar 1:
E)--------------------------------------------------|
B)--------17----------17----------17-------17-------|
G)-----16----16----16----16----16-------16----16----|
D)--14----------13----------------------------------|
A)--------------------------16-------14-------------|
E)--------------------------------------------------|

Intro Guitar 2: X2
E)---------------------|
B)---------------------|
G)--14----13-----------|
D)---x-----x-----------|
A)--12----11-----------|
E)---------------------|

Verse: "It's goodbye..."
E)--0--0--0--0--0~-----------|
B)--0--0--0--0--0~-----------|
G)--6--2--1--4--2~-----------|
D)--6--2--2--4--2~-----------|
A)--4--0--2--2--0~-----------|
E)--------0------------------|

Chorus: X2
E)--0--0--0--0-------------|
B)--0--0--0--0-------------|
G)--6--2--1--4-------------|
D)--6--2--2--4-------------|
A)--4--0--2--2-------------|
E)--------0----------------|

Interlude: "Watch it burn..."
E)--0----0-----|
B)--0----0-----|
G)--2----4-----|
D)--2----4-----|
A)--0----2-----|
E)-------------|

Bridge Part 1 Guitar 1: "All of the wasted time..."
E)--0--0--0--0--0---|
B)--0--0--0--0--0---|
G)--2--2--2--2--4---|
D)--2--2--2--2--4---|
A)--0--0--0--0--2---|
E)------------------|

Bridge Part 1 Guitar 2:
E)--0000000000000000000---|
B)--7779991111119997755---|
G)------------------------|
D)------------------------|
A)------------------------|
E)------------------------|

Bridge Part 2 Guitar 1: X2
E)--0--0--0--0-------------|
B)--0--0--0--0-------------|
G)--6--2--1--4-------------|
D)--6--2--2--4-------------|
A)--4--0--2--2-------------|
E)--------0----------------|

Bridge Part 2 Guitar 2:
E)--------------------------------------------------------------------|
B)--------------------------------------------------------------------|
G)--13--11-9--13--14--16--13--11-9--16--14--13--13--11-9--8---14--16--|
D)--x---x--x--x---x---x---x---x--x--x---x---x---x---x--x--x---x---x---|
A)--11--9--7--11--12--14--11--9--7--14--12--11--11--9--7--11--12--14--|
E)--------------------------------------------------------------------|

Bridge Part 2 Continued:
E)---------------|
B)---------------|
G)--13--11-9--8--|
D)--x---x--x--x--|
A)--11--9--7--6--|

Bridge Part 3 Guitar 1:
E)--0~--0~--0~--0~-------------|
B)--0~--0~--0~--0~-------------|
G)--6~--2~--1~--4~-------------|
D)--6~--2~--2~--4~-------------|
A)--4~--0~--2~--2~-------------|
E)----------0~-----------------|

Bridge Part 3 Guitar 2:
E)--0/00000000---|
B)--4/55555555---|
G)---------------|
D)---------------|
A)---------------|
E)---------------|
            
Submit corrections



        Great Escape lessons Hard to play? Try these video lessons and learn fast Great Escape lessons
        
↑ Back to top | Tablatures and chords for acoustic guitar and electric guitar, ukulele, drums are parodies/interpretations of the original songs. You may use it for private study, scholarship, research or language learning purposes only