» » »

Boys Like Girls - Heart Heart Heartbreak Tabs

Artists:  A B C D E F G H I J K L M N O P Q R S T U V W X Y Z # 

Heart Heart Heartbreak Tabs

(ver. 2) Click to play this song!
Boys Like Girls
 Rating:
4/5 (4 votes)
    Heart Heart Heartbreak lessons Tabs too difficult? Try these video lessons and learn fast
                ****************************************************************************
Song Title: "Heart Heart Heartbreak"

Last update: August 22, 2009
****************************************************************************
ridiculously easy, and if you can't figure out those simple power chords by
ear, then sorry to say, you probably won't be able to play this solo.  I'm
not 100% sure about this, especially on the last two scale progressions.  If
you have any corrections, please post them in the comments.

I have a video of me playing it here:
You can't really see my fingering, but at least you'll get an idea of what
it's supposed to sound like.  Enjoy!
****************************************************************************
Key:
h = hammer on
p = pull off
b = bend
r = return
~ = vibrato
/ = slide up
\ = slide down
****************************************************************************
TUNING: Drop D...though you won't be playing any chords or even using the
6th string for this solo, the entire song for the lead guitar is supposed to
be in Drop D, so you might as well tune to it.
****************************************************************************
GUITAR II (LEAD)-
DROP D TUNING (D A D G B e)

e)---------------------------------------------------|
B)---------------------7~-------------------7b8r7----|
G)-7/9~--9-7-9~--9-7-9-----7h9~-7-9-7-9~--9-------7~-|
D)---------------------------------------------------|
A)---------------------------------------------------|
D)---------------------------------------------------|

(Really, this is all just a simple pentatonic pattern)
e)-10p7------10p7------10p7-----10p7------|
B)------10p7------10p7-----10p7------10p7-|
G)----------------------------------------|
D)----------------------------------------|
A)----------------------------------------|
D)----------------------------------------|

e)-12p10-------12p10-------12p10-------|
B)-------12p10-------12p10-------12p10-|
G)-------------------------------------|
D)-------------------------------------|
A)-------------------------------------|
D)-------------------------------------|

e)-14p12-------14p12-------17p14-------17p14-------|
B)-------15p12-------15p12-------17p15-------17p15-|
G)-------------------------------------------------|
D)-------------------------------------------------|
A)-------------------------------------------------|
D)-------------------------------------------------|

e)-17b19-17b19r17~\-|
B)------------------|
G)------------------|
D)------------------|
A)------------------|
D)------------------|

e)----|
B)----|
G)----|
D)-9\-|
A)-9\-|
D)-9\-|

Again, comments appreciated.
            
Submit corrections

↑ Back to top | Tablatures and chords for acoustic guitar and electric guitar, ukulele, drums are parodies/interpretations of the original songs. You may use it for private study, scholarship, research or language learning purposes only