Home » B » Boxtops »

Boxtops - Letter Bass

Artists:  A B C D E F G H I J K L M N O P Q R S T U V W X Y Z # 

Letter Bass

(ver. 1) Click to play this song!
Boxtops
Boxtops-Letter

TablEdited by Jan Bjorklund   
You are welcome to request for tabs!
Fingering and positions as suggested by TablEdit, please use common sense.


Tuning : E A D G 	Time Signature: 4/4

 |       |       |       |        |       |       |       |        
|----------1---4---9---7---4-----|--2---2-----------2---2---------|
|------2-----------------------2-|--------------2---------------2-|
|--------------------------------|--------------------------------|
|--------------------------------|--------------------------------|

 |       |       |       |        |       |       |       |        
|--------------------------------|--0---0-----------0---0-------2-|
|--3---3-----------3---3-------0-|--------------0-----------------|
|--------------3-----------------|--------------------------------|
|--------------------------------|--------------------------------|

 |       |       |       |        |       |       |       |        
|--------------2-----------------|--2---2-----------2---2---------|
|--0---0-----------0---0-------2-|--------------2---------------2-|
|--------------------------------|--------------------------------|
|--------------------------------|--------------------------------|

 |       |       |       |        |       |       |       |        
|--------------------------------|--------------------------------|
|--3---3-----------3---3-------0-|--2---2-----------2---2-------2-|
|--------------3-----------------|--------------2-----------------|
|--------------------------------|--------------------------------|

 |       |       |       |        |       |       |       |        
|--2---2-----------2---2---------|--2---2-----------2---2---------|
|--------------2---------------2-|--------------2---------------2-|
|--------------------------------|--------------------------------|
|--------------------------------|--------------------------------|

 |       |       |       |        |       |       |       |        
|--------------------------------|--0---0-----------0---0-------2-|
|--3---3-----------3---3-------0-|--------------0-----------------|
|--------------3-----------------|--------------------------------|
|--------------------------------|--------------------------------|

 |       |       |       |        |       |       |       |        
|--------------2-----------------|--2---2-----------2---2---------|
|--0---0-----------0---0-------2-|--------------2---------------2-|
|--------------------------------|--------------------------------|
|--------------------------------|--------------------------------|

 |       |       |       |        |       |       |       |        
|--------------------------------|--------------------------------|
|--3---3-----------3---3-------0-|--2---2-----------2---2-------2-|
|--------------3-----------------|--------------2-----------------|
|--------------------------------|--------------------------------|

 |       |       |       |        |       |       |       |        
|--2---2-----------2---2---------|--2---2-----------2---2---------|
|--------------2---------------2-|--------------2---------------2-|
|--------------------------------|--------------------------------|
|--------------------------------|--------------------------------|

 |       |       |       |        |       |       |       |        
|--------------0-----------------|------------------------------0-|
|----------2-------------------0-|--------------------------2-----|
|--3---3-------------------2-----|----------0---3---3---3---------|
|------------------3---3---------|--1---1-------------------------|

 |       |       |       |        |       |       |       |        
|--------------------------------|--------------------------------|
|----------0-----------0---------|----------0-----------0---------|
|------2-----------2-------------|------2-----------2-------------|
|--3-----------3-----------3---3-|--------------3-----------3---3-|

 |       |       |       |        |       |       |       |        
|----------0---------------------|--------------------------0-----|
|------2-------------------0-----|----------------------2---------|
|--3-------------------2---------|------0---3---3-----------------|
|--------------3---3-----------3-|--1---------------------------3-|

 |       |       |       |        |       |       |       |        
|--------------------------------|--------------------------------|
|----------0-----------0---------|--------------------------------|
|------2-----------2-----------2-|--------------------------------|
|--3-----------3-----------3-----|--0-----------------------0-----|

 |       |       |       |        |       |       |       |        
|--2---2-----------2---2---------|--------------------------------|
|--------------2---------------2-|--3---3-----------3---3-------0-|
|--------------------------------|--------------3-----------------|
|--------------------------------|--------------------------------|

 |       |       |       |        |       |       |       |        
|--0---0-----------0---0-------2-|--------------2-----------------|
|--------------0-----------------|--0---0-----------0---0-------2-|
|--------------------------------|--------------------------------|
|--------------------------------|--------------------------------|

 |       |       |       |        |       |       |       |        
|--2---2-----------2---2---------|--------------------------------|
|--------------2---------------2-|--3---3-----------3---3-------0-|
|--------------------------------|--------------3-----------------|
|--------------------------------|--------------------------------|

 |       |       |       |        |       |       |       |        
|--------------------------------|--2---2-----------2---2---------|
|--2---2-----------2---2-------2-|--------------2---------------2-|
|--------------2-----------------|--------------------------------|
|--------------------------------|--------------------------------|

 |       |       |       |        |       |       |       |        
|--2---2-----------2---2---------|--------------0-----------------|
|--------------2---------------2-|----------2-------------------0-|
|--------------------------------|--3---3-------------------2-----|
|--------------------------------|------------------3---3---------|

 |       |       |       |        |       |       |       |        
|------------------------------0-|--------------------------------|
|--------------------------2-----|----------0-----------0---------|
|----------0---3---3---3---------|------2-----------2-------------|
|--1---1-------------------------|--3-----------3-----------3---3-|

 |       |       |       |        |       |       |       |        
|--------------------------------|----------0---------------------|
|----------0-----------0---------|------2-------------------0-----|
|------2-----------2-------------|--3-------------------2---------|
|--------------3-----------3---3-|--------------3---3-----------3-|

 |       |       |       |        |       |       |       |        
|--------------------------0-----|--------------------------------|
|----------------------2---------|----------0-----------0---------|
|------0---3---3-----------------|------2-----------2-----------2-|
|--1---------------------------3-|--3-----------3-----------3-----|

 |       |       |       |        |       |       |       |        
|--------------------------------|--2---2-----------2---2---------|
|--------------------------------|--------------2---------------2-|
|--------------------------------|--------------------------------|
|--0-----------------------0-----|--------------------------------|

 |       |       |       |        |       |       |       |        
|--------------------------------|--0---0-----------0---0-------2-|
|--3---3-----------3---3-------0-|--------------0-----------------|
|--------------3-----------------|--------------------------------|
|--------------------------------|--------------------------------|

 |       |       |       |        |       |       |       |        
|--------------2-----------------|--2---2-----------2---2---------|
|--0---0-----------0---0-------2-|--------------2---------------2-|
|--------------------------------|--------------------------------|
|--------------------------------|--------------------------------|

 |       |       |       |        |       |       |       |        
|--------------------------------|--------------------------------|
|--3---3-----------3---3-------0-|--2---2-----------2---2-------2-|
|--------------3-----------------|--------------2-----------------|
|--------------------------------|--------------------------------|

 |       |       |       |        |       |       |       |        
|--2---2-----------2---2---------|--------------------------------|
|--------------2---------------2-|--2---2-----------2---2-------2-|
|--------------------------------|--------------2-----------------|
|--------------------------------|--------------------------------|

 |       |       |       |        |       |       |       |        
|--2---2-----------2---2---------|--2---2-----------2---2---------|
|--------------2---------------2-|--------------2---------------2-|
|--------------------------------|--------------------------------|
|--------------------------------|--------------------------------|

 |       |       |       |        |       |       |       |        
|--------------1-----------------|------------------------------1-|
|----------3-------------------1-|--------------------------3-----|
|--4---4-------------------3-----|----------1---4---4---4---------|
|------------------4---4---------|--2---2-------------------------|

 |       |       |       |        |       |       |       |        
|--------------------------------|--------------------------------|
|----------1-----------1---------|----------1-----------1---------|
|------3-----------3-------------|------3-----------3-------------|
|--4-----------4-----------4---4-|--------------4-----------4---4-|

 |       |       |       |        |       |       |       |        
|--------------1-----------------|------------------------------1-|
|----------3-------------------1-|--------------------------3-----|
|--4---4-------------------3-----|----------1---4---4---4---------|
|------------------4---4---------|--2---2-------------------------|

 |       |       |       |        |       |       |       |        
|--------------------------------|--------------------------------|
|----------1-----------1---------|----------1-----------1---------|
|------3-----------3-------------|------3-----------3-------------|
|--4-----------4-----------4---4-|--------------4-----------4---4-|

 |       |       |       |        |       |       |       |        
|----------1---------------------|--------------------------1-----|
|------3-------------------1-----|----------------------3---------|
|--4-------------------3---------|------1---4---4-----------------|
|--------------4---4-----------4-|--2---------------------------4-|

 |       |       |       |        |       |       |       |        
|--------------------------------|--------------------------------|
|----------1-----------1---------|--------------------------------|
|------3-----------3-----------3-|--------------------------------|
|--4-----------4-----------4-----|--1-----------------------------|
            
Submit corrections

↑ Back to top | Tablatures and chords for acoustic guitar and electric guitar, ukulele, drums are parodies/interpretations of the original songs. You may use it for private study, scholarship, research or language learning purposes only