Home » B » Bowling For Soup »

Bowling For Soup - Much More Beautiful Person Bass

Artists:  A B C D E F G H I J K L M N O P Q R S T U V W X Y Z # 

Much More Beautiful Person Bass

(ver. 1) Click to play this song!
Bowling For Soup
-------------------------------------------------------------------------------------|   
    Much More Beautiful Person Bass Tab - Bowling for Soup
-------------------------------------------------------------------------------------|


Took me a couple of hours to tab, but i think i've got it pretty much spot on, a fun 
to play, and not massively difficult either

Tuning: Standard E,A,D,G

Main Riff ( Repeat 4 times for the intro )

G|---------------|
D|---------------|
A|55-1-1-----33--|
E|-------1-1-----|


Verse

G|------------------------------------------------|
D|------------------------------------------------|
A|555555555555555533333333333333331111111133333333|
E|------------------------------------------------|


Bridge

G|----------------------------------------------------------------|
D|----------------------------------------------------------------|
A|1111111111111111555557-8-7-5-3--11111111111111113333333333333333|
E|----------------------------------------------------------------|
(Remember the repeat markers...)
''You're gonna smile''....
G||  ---------------  ||  ---------------  || ----------------|
D||. --------------- .||. --------------- .|| ----------------|
A||. --------3-33-33 .||. 5-5-55-1-11-111 .|| -------3-33-333-|
E||  1-11-11--------  ||  ---------------  || 1-1-11----------|


Bridge 2

G|-----------------------------------------------------------------------------|
D|-----------------------------------------------------------------------------|
A|-------3-33-33311111111--------33333335-5-3-0--1-1-1111-------333335-6^5-3---|
E|3-3-33-----------------11111111------------------------111-111---------------|

G|--------------------------------------------------------|
D|--------------------------------------------------------|
A|-5301-1-11----------33333335-5-3-0--1-1-111-------3(hold|
E|-----------1-11-111------------------------111111-------|


Ending Riff

G|----------------|
D|----------------|
A|-------3-33-333-|
E|1-1-11----------|

(Now play the Main Riff twice to finish)

Correct Order:

Main Riff X4
Verse
Main Riff
Verse
Main Riff X2
Bridge
Main Riff X2
Verse
Main Riff
Verse
Main Riff
Bridge
Bridge 2
Bit with Repeat Markers (''You're Gonna Smile''...)
Ending Riff
Main Riff X2

Enjoy! Please leave comments letting me know how i've done
            
Submit corrections

↑ Back to top | Tablatures and chords for acoustic guitar and electric guitar, ukulele, drums are parodies/interpretations of the original songs. You may use it for private study, scholarship, research or language learning purposes only