Home » B » Bowling For Soup »

Bowling For Soup - Endless Possibility Tabs

Artists:  A B C D E F G H I J K L M N O P Q R S T U V W X Y Z # 

Endless Possibility Tabs

(ver. 1) Click to play this song!
Bowling For Soup
 Rating:
4/5 (4 votes)
                This song is really by Jaret Reddick, but I could only upload it
as BFS, so enjoy!

This is my first song I tabbed out, I looked everywhere to find it and 
couldn't find it, so here it is, it's not perfect, but the chords are right (I hope =P)

INTRO:

e|----------------------------------|
B|-5-5-5-4-4-4-5-5-5-4-4-4-5-5-4-4--|
G|-4-4-4-4-4-4-4-4-4-4-4-4-4-4-4-4--|
D|----------------------------------|
A|----------------------------------|
E|----------------------------------| x8

Verse:

e|-----------------------------------|
B|-5-5-5-5-5-5-5-5-4-4-4-5-5-5-4-4-4-|
G|-4-4-4-4-4-4-4-4-4-4-4-4-4-4-4-4-4-|
E|-----------------------------------|
A|-----------------------------------|
E|-----------------------------------| x2

This is my escape
I'm running through this world
And I'm not looking back

e|---------------------------------------------------------------------------------|
B|---------------------------------------------------------------------------------|
G|-4-4-4-4-4-4-4-4-6-6-6-6-6-6-6-6-8-8-8-8-8-8-8-8-9-9-9-9-9-9-9-9-----------------|
D|---------------------------------------------------------------------------------|
A|---------------------------------------------------------------------------------|
E|---------------------------------------------------------------------------------|

e|-----------------------------------|
B|-5-5-5-5-5-5-5-5-4-4-4-5-5-5-4-4-4-|
G|-4-4-4-4-4-4-4-4-4-4-4-4-4-4-4-4-4-|
E|-----------------------------------|
A|-----------------------------------|
E|-----------------------------------| x2

'Cause I know I can go
Where no one's ever gone
And I'm not looking back

e|---------------------------------------------------------------------------------|
B|---------------------------------------------------------------------------------|
G|-4-4-4-4-4-4-4-4-6-6-6-6-6-6-6-6-8-8-8-8-8-8-8-8-9-9-9-9-9-9-9-9-----------------|
D|---------------------------------------------------------------------------------|
A|---------------------------------------------------------------------------------|
E|---------------------------------------------------------------------------------|

But how will I know when I get there?
And how will I know when to leave?
We've all got to start from somewhere
It's like that for me
The possibilities are never ending

e|-5-5-5-5-5-5-5-5-4-4-4-4-4-4-4-4-5-5-5-4-4-4-5-5-5-4-4-4-|
B|-4-4-4-4-4-4-4-4-4-4-4-4-4-4-4-4-4-4-4-4-4-4-4-4-4-4-4-4-|
G|---------------------------------------------------------|
D|---------------------------------------------------------|
A|---------------------------------------------------------|
E|---------------------------------------------------------| x3

Chorus:

I see it, I see it
And now it's all within my reach
Endless possibility
I see it, I see it now
It's always been inside of me
And now I feel so free
Endless possibility

e|-----------------------------------------------------------------------------------------------|
B|-5-5-5-5-5-5-5-5-4-4-4-4-4-4-4-4-9-9-9-9-9-9-9-9-7-7-7-7-7-7-7-7-5-5-5-5-5-5-5-5-9-9-9-7-7-7---|
G|-4-4-4-4-4-4-4-4-4-4-4-4-4-4-4-4------------------------------------------------------------7--|
D|-----------------------------------------------------------------------------------------------|
A|-----------------------------------------------------------------------------------------------|
E|-----------------------------------------------------------------------------------------------|
 x2


Repeat for second verse and chorus


So who's waking up when I get there?
It feels like I'm lost in a dream
I know in my heart that it's my time
And I already see
The possibilities are never ending

[Chorus]


Bridge:

Drop n' Stop
'Cause you've proven again
Now this is where
My journey begins

You'll lose speed, you're losing your flow
But inside is a power you'll never know!
Better let it out, it's inside you!
Better all step back, 'cause I'm coming through!

e|-------------------------------------------------|
B|-------------------------------------------------|
G|-------------------------------------------------|
D|-2-2-3-3-2-2-3-3-2-2-3-3-2-2-3-3-2-2-3-3-2-2-3-3-|
A|-2-2-3-3-2-2-3-3-2-2-3-3-2-2-3-3-2-2-3-3-2-2-3-3-|
E|-----1-1-----1-1-----1-1-----1-1-----1-1-----1-1-|

e|---------------------------------------------------------------------------------|
B|---------------------------------------------------------------------------------|
G|---------------------------------------------------------------------------------|
D|-2-2-2-2-3-2-2-2-2-3-2-2-2-2-3-2-2-2-2-3-----------------------------------------|
A|-2-2-2-2-3-2-2-2-2-3-2-2-2-2-3-2-2-2-2-3-----------------------------------------|
E|---------1---------1---------1---------1-----------------------------------------|

Still Playing with the solo, will post it when i get.


The ending I haven't gotten down either, but just play with the above chords and you'll get it.
            
Submit corrections

↑ Back to top | Tablatures and chords for acoustic guitar and electric guitar, ukulele, drums are parodies/interpretations of the original songs. You may use it for private study, scholarship, research or language learning purposes only