» » »

Bowling For Soup - 20 Years Thats A Lot Of Beers Tabs

Artists:  A B C D E F G H I J K L M N O P Q R S T U V W X Y Z # 

20 Years Thats A Lot Of Beers Tabs

(ver. 1) Click to play this song!
Bowling For Soup
 Rating:
4/5 (4 votes)

 20 Years Thats A Lot Of Beers  lessons Tabs too difficult? Try these video lessons and learn fast
 
                C7 : (x32310)
Fmaj7: (x33210)

Intro Riff:
e|-------------------------------------------------------------------------|
B|-------------------------------------5b-5-5-5----------------------------|
G|-2-2--4-5-5-4-2-0-----2-2--4-5-5-4-2----------5~-------------------------|
D|-------------------------------------------------------------------------|
A|-------------------------------------------------------------------------|
E|-------------------------------------------------------------------------|

Intro:
C Fmaj7 C Fmaj7 C 


Verse:
Fmaj7                     C
Started up this band in '94
Fmaj7                     C
We toured the world in a Coleman with some wheels
Fmaj7                       C
I know I've sang this all before
Fmaj7                           G
But that was back when we still had a record deal


Pre Chorus:
        C                            C7
But our story isn't finished and the ink still hasn't dried
   F                             Fm
We punished all our livers we've laughed and we've cried
      C                         G               C        
And I think I've still got some room for more tattoos


Chorus:
        F     C      G            C
Singin' La-La-La, so many awesome memories
F            C            G
Some of them I can still recall
F     C         G               Am
La-La-La, we're still alive and drinkin'
F         G               C      
20 years, that's a lot of beers

Chorus Riff:
e|-8---8---8---8---7---7---8---8---8---8---8---8---8---8---7---7---7---7---|
B|---8---8---8---8---8---8---8---8---8---8---8---8---8---8---8---8---8---8-|
G|-------------------------------------------------------------------------|
D|-------------------------------------------------------------------------|
A|-------------------------------------------------------------------------|
E|-------------------------------------------------------------------------|

e|-8---8---8---8---7---7---8---8---8---8---8---8---8---8---8---8---8---8---|
B|---8---8---8---8---8---8---8---8---8---8---8---8---8---8---8---8---8---8-|
G|-------------------------------------------------------------------------|
D|-------------------------------------------------------------------------|
A|-------------------------------------------------------------------------|
E|-------------------------------------------------------------------------|


Verse 2:
Fmaj7                              C
We're still the same we're always been
Fmaj7                                  C    
Breakup songs with power chords and a sh*tload of Miller Light
Fmaj7                                  C 
After all this time we're still best friends (we're still best friends)
Fmaj7                            G
Gotten into a lot of pants but only two bar fights

Verse 2 Riff:
e|-------------------------------------------------------------------------|
B|-----------------------------------------8-8-7-5-7--5-3------------------|
G|-5-5--7-9-9-7-5-2----2h5-----------5-5-7---------------------------------|
D|-------------------------5~----------------------------------------------|
A|-------------------------------------------------------------------------|
E|-------------------------------------------------------------------------|


Pre Chorus:
C                                  C7
Green Day's been on Broadway, well Chris puked on that street
          F                            Fm
Back when Sum and Blink were funny and rockstars still ate meat
      C                  G               C          
And I still had a lot of room for more tattoos


Chorus:
        F     C      G            C
Singin' La-La-La, so many awesome memories
F            C            G
Some of them I can still recall
F     C         G               Am
La-La-La, we're still alive and drinkin'
F         G               C          Am
20 years, that's a lot of beers
F         Fm              C          Am    F    Fm
20 years, that's a lot of beers

Chorus Riff:
e|-8---8---8---8---7---7---8---8---8---8---8---8---8---8---7---7---7---7---|
B|---8---8---8---8---8---8---8---8---8---8---8---8---8---8---8---8---8---8-|
G|-------------------------------------------------------------------------|
D|-------------------------------------------------------------------------|
A|-------------------------------------------------------------------------|
E|-------------------------------------------------------------------------|

e|-8---8---8---8---7---7---8---8---8---8---8---8---8---8---8---8---8---8---|
B|---8---8---8---8---8---8---8---8---8---8---8---8---8---8---8---8---8---8-|
G|-------------------------------------------------------------------------|
D|-------------------------------------------------------------------------|
A|-------------------------------------------------------------------------|
E|-------------------------------------------------------------------------|


e|-8---8---8---8-7-5---5---5---5---5---5---4---4---4---4------|
B|---8---8---8-------5---5---5---5---5---5---5---5---5---5----|
G|------------------------------------------------------------|
D|------------------------------------------------------------|
A|------------------------------------------------------------|
E|------------------------------------------------------------|

e|-8---8---8---8-7-5---5---5---5---5---5---5---5---5---4~-----|
B|---8---8---8-------5---5---5---5---5---5---5---5---5--------|
G|------------------------------------------------------------|
D|------------------------------------------------------------|
A|------------------------------------------------------------|
E|------------------------------------------------------------|


Bridge:
           C 
We haven't lost any hair
           C7 
We haven't lost any pounds
           Fmaj7 
We haven't lost any fans
                 Fm 
'Cause we're the best f**king band around
       C                G                C      
And we all just got our third matching tattoo


Chorus:
        F     C      G            C
Singin' La-La-La, so many awesome memories
F            C            G
Some of them I can still recall
F     C         G               Am
La-La-La, we're still alive and drinkin'
F         G               C        Am
20 years, that's a lot of beers
F         Fm              C        Am
20 years, that's a lot of beers
F         Fm              C       
20 years, that's a lot of beers

Chorus Riff:
e|-8---8---8---8---7---7---8---8---8---8---8---8---8---8---7---7---7---7---|
B|---8---8---8---8---8---8---8---8---8---8---8---8---8---8---8---8---8---8-|
G|-------------------------------------------------------------------------|
D|-------------------------------------------------------------------------|
A|-------------------------------------------------------------------------|
E|-------------------------------------------------------------------------|

e|-8---8---8---8---7---7---8---8---8---8---8---8---8---8---8---8---8---8---|
B|---8---8---8---8---8---8---8---8---8---8---8---8---8---8---8---8---8---8-|
G|-------------------------------------------------------------------------|
D|-------------------------------------------------------------------------|
A|-------------------------------------------------------------------------|
E|-------------------------------------------------------------------------|


e|-8---8---8---8-7-5---5---5---5---5---5---4---4---4---4------|
B|---8---8---8-------5---5---5---5---5---5---5---5---5---5----|
G|------------------------------------------------------------|
D|------------------------------------------------------------|
A|------------------------------------------------------------|
E|------------------------------------------------------------|

e|-8---8---8---8-7-5---5---5----|
B|---8---8---8-------5---5---5--|
G|------------------------------|
D|------------------------------|
A|------------------------------|
E|------------------------------|            
Submit corrections


        20 Years Thats A Lot Of Beers  lessons Hard to play? Try these video lessons and learn fast 20 Years Thats A Lot Of Beers  lessons
        
↑ Back to top | Tablatures and chords for acoustic guitar and electric guitar, ukulele, drums are parodies/interpretations of the original songs. You may use it for private study, scholarship, research or language learning purposes only