» » »

Gene Genie Bass - Bowie David

Artists:  A B C D E F G H I J K L M N O P Q R S T U V W X Y Z # 

Gene Genie Bass

(ver. 1) Click to play this song!
Bowie David
4/5 (4 votes)
    Gene Genie lessons Tabs too difficult? Try these video lessons and learn fast



For the verse you play the intro for a while.

chorus  ( gene genie she........)

g------------------------------------  }
d------------------------------------  }  x4
a-----------6--7---6-----------------  }
e--7--7--7--------------7------------  }

woo hoo waoo  wahoooooooooooo  part goes

g---------------------------------------- }
d---------------------------------------- } x2
a--------------4-5--4------4-\-11-h-10--- }
e---5--5--5------------5----------------- }

thats it

listen to song for timimng.
Submit corrections

↑ Back to top | Tablatures and chords for acoustic guitar and electric guitar, ukulele, drums are parodies/interpretations of the original songs. You may use it for private study, scholarship, research or language learning purposes only