» » »

Bouncing Souls - Lifetime Tabs

Artists:  A B C D E F G H I J K L M N O P Q R S T U V W X Y Z # 

Lifetime Tabs

(ver. 1) Click to play this song!
Bouncing Souls
 Rating:
4/5 (4 votes)

 Lifetime lessons Tabs too difficult? Try these video lessons and learn fast
 
                "Lifetime" by the Bouncing Souls
off the album "How I Spent My Summer Vacation"
mxtabs id: coincidentalminorguitar

well this song, i probably have it off in at least one place, but this is what i got. some tough chords to play if you have little fingers, and some are kind of hard to switch to and from. but i tried to tab it, so you try and play it. Standard tuning.

intro

e------------------|    |-----------------|
b-5-5-5-5-6-6-6-6--|x12 |-----------------|
g--5-5-5-5-5-5-5-5-|then|-555-555-777-----| once
d------------------|    |-xxx-xxx-xxx-555-| quickly
a------------------|    |-333-222-555-xxx-|
e------------------|    |-------------333-|

verse
      1st half                             2nd half
e---------------------|    |---------|---------|---------|---------|
b---------------------|    |---------|---------|---------|---------|
g-5555-5555-7777------| x4 |-5-------|-5-------|-5-7-10--|-5-5-5---|
d-5555-5555-7777-5555-|then|-x-------|-x-------|-x-x-x---|-x-x-x---|
a-3333-2222-5555-5555-|    |-3-------|-3-------|-3-5-8---|-3-3-3---|
e----------------3333-|    |---------|---------|---------|---3-1---|

play the full verse (both halves, above) twice, then play only the first half for a third time, and instead of playing the normal second half, play this part below. 

e---------|    |---------------|
b---------|    |-5555----------|
g-5-5-5---| x5 |-5555-10101010-| x6
d-x-x-x---|then|-xxxx-10101010-|
a-3-3-3---|    |-3333-8-8-8-8--|
e---3-1---|    |---------------|

(x5 is NOT a typo, above)

after playing those two parts, just go back and play the first part of the intro again (only) four times, and let the last note ring out and you're done. not as any parts as other songs, but like i said, some weird chords that are hard to play is you have short fingers.

feedback is appreciated
            
Submit corrections


        Lifetime lessons Hard to play? Try these video lessons and learn fast Lifetime lessons
        
↑ Back to top | Tablatures and chords for acoustic guitar and electric guitar, ukulele, drums are parodies/interpretations of the original songs. You may use it for private study, scholarship, research or language learning purposes only