Home » B » Born Ruffians »

Born Ruffians - What To Say Bass

Artists:  A B C D E F G H I J K L M N O P Q R S T U V W X Y Z # 

What To Say Bass

(ver. 1) Click to play this song!
Born Ruffians
			     What to Say - Born Ruffians

Tuning: Standard
G|-----13---13---15---16----------------------------|
D|-----14---13---13---13----------------------------|
A|--------------------------------------------------|
E|--------------------------------------------------|

G|-------------------------------------------------|
D|-----6-----6-----4-6-----------------------------|
A|---7---7-6---6-4-----6---------------------------| X4
E|-------------------------------------------------|

G|---13------------|
D|---14--11--------|
A|-------12--------|
E|-----------------|

G|---------------------------------------------|
D|-----6-----6-----4-6-------------------------|
A|---7---7-6---6-4-----66----------------------| X12
E|---------------------------------------------|

G|---13--------13----------------------------|
D|---14--11----14-11--13---------------------|
A|-------12-------12--14---------------------| X2
E|-------------------------------------------|

G|---------------------------------------------------------|
D|---------------------------------------------------------|
A|--------------------0000006666667777---------------------| X2
E|---0000006666667777--------------------------------------|

(Pause)

G|---9---------11--------9-9--------11--------9---------------|
D|------9-9--11----11-11-----9-9--11----11-11-----------------|
A|------------------------------------------------------------| X2
E|------------------------------------------------------------|

G|-----------------------------|
D|-----------------------------|
A|---7---------9------7-7—-----| X3
E|------7-7--9----9-9----------|

G|------------------------------|
D|------------------------------|
A|---7--------------------------|
E|------7-7--9---5---5----------|

G|----------------------|
D|----------------------|
A|----------------------| X3
E|--0-0---0--0--0-------|


G|----------------------|
D|----------------------|
A|----------------------|
E|--0-0---0--0----------|

G|----------------------------|
D|----------------------------|
A|-------------2-2h4-4-2-4-2—-| X7
E|--0-0---0--4----------------|


G|---------------------------------|
D|---------------------------------|
A|-------------2-2h4-4-2-4-2-6-----|
E|--0-0---0--4---------------------|

G|-----------------------------|
D|-----------------------------|
A|---7---------9------7-7—-----| X3
E|------7-7--9----9-9----------|

G|------------------------------|
D|------------------------------|
A|---7--------------------------|
E|------7-7--9---5--------------|

G|---13--------13----------------------------|
D|---14--11----14-11--13---------------------|
A|-------12-------12--14---------------------| X2
E|-------------------------------------------|

G|---------------------------------------------------|
D|---------------------------------------------------|
A|---------------------------------------------------| X2
E|---0---5---9---0---5---7---------------------------|

G|---------------------------------|
D|-----6-----6-----4-6-------------|
A|---7---7-6---6-4-----6-----------|X3
E|---------------------------------|

G|-------------------------|
D|-----6-----6-------------|
A|---7---7-6---6-----------|
E|-------------------------|

| /  slide up
| \  slide down
| h  hammer-on
| p  pull-off
| ~  vibrato
| +  harmonic
| x  Mute note
===============================================================================
            
Submit corrections

↑ Back to top | Tablatures and chords for acoustic guitar and electric guitar, ukulele, drums are parodies/interpretations of the original songs. You may use it for private study, scholarship, research or language learning purposes only