Home » B » Born Ruffians »

Born Ruffians - I'm One Of Those Girls Bass

Artists:  A B C D E F G H I J K L M N O P Q R S T U V W X Y Z # 

I'm One Of Those Girls Bass

(ver. 1) Click to play this song!
Born Ruffians
Intro: (4/4 timing, standard tuning)
G|------------12-12/8---------8-8/12-|
D|-------13----------------10--------|
A|----13----------------10-----------|
E|-11-----------------8--------------|

 "You say yes. I say no but I can't complain..." 
G|------------12-12/8---------8-8/12-|------------12-12---------8-7-5-|
D|-------13----------------10--------|-------13--------------10-------|
A|----13----------------10-----------|----13--------------10----------|
E|-11-----------------8--------------|-11---------------8-------------|

 "With the sex. I don't know but it's all the same."
G|------------12-12/8---------8-8/12-|------------12-12---------8-7-5-|
D|-------13----------------10--------|-------13--------------10-------|
A|----13----------------10-----------|----13--------------10----------|
E|-11-----------------8--------------|-11---------------8-------------|

 "Sexy, Sexy, Sexy, Sexy, Sexy, Sexy."
G|-------------------------|------------12-12/8---------8-8/12-|
D|-------5-5-5-------5-5-5-|-------13----------------10--------|
A|-------------------------|----13----------------10-----------|
E|-4-4-4-------4-4-4-------|-11-----------------8--------------|

 "Sexy, Sexy, Sexy, Sexy, Sexy, Sexy."
G|-------------------------|------------12-12/8---------8-8/12-|
D|-------5-5-5-------5-5-5-|-------13----------------10--------|
A|-------------------------|----13----------------10-----------|
E|-4-4-4-------4-4-4-------|-11-----------------8--------------|

 "I'm one of those girls. And you know that I know that you know that I know that you know."
G|------------12-12/8---------8-8/12-|------------12-12---------8-7-5-|
D|-------13----------------10--------|-------13--------------10-------|
A|----13----------------10-----------|----13--------------10----------|
E|-11-----------------8--------------|-11---------------8-------------|

 "Oh, you can do it. Oh, do to me."
G|------------12-12/8---------8-8/12-|------------12-12---------8-7-5-|
D|-------13----------------10--------|-------13--------------10-------|
A|----13----------------10-----------|----13--------------10----------|
E|-11-----------------8--------------|-11---------------8-------------|

 "What don't you want with me? I'm a celebrity."
G|-------------------------|------------12-12/8---------8-8/12-|
D|-------5-5-5-------5-5-5-|-------13----------------10--------|
A|-------------------------|----13----------------10-----------|
E|-4-4-4-------4-4-4-------|-11-----------------8--------------|

 "Come into bed with me, take my virginity."
G|-------------------------|------------12-12/8---------8-8/12-|
D|-------5-5-5-------5-5-5-|-------13----------------10--------|
A|-------------------------|----13----------------10-----------|
E|-4-4-4-------4-4-4-------|-11-----------------8--------------|

G|------------12-12/8---------8-7-5-|
D|-------13----------------10-------|
A|----13----------------10----------|
E|-11-----------------8-------------|

 "I'm on my own, I'm on my own."
G|-------------------------|----------12-12/8---------8/12-|
D|------6------8--------10-|-------13--------------10------|
A|---66-----88-----1010----|----13--------------10---------|
E|-4------6------8---------|-11---------------8------------|

"I'm on my own, I'm on my own."
G|-------------------------|----------12-12/8---------8/12-|
D|------6------8--------10-|-------13--------------10------|
A|---66-----88-----1010----|----13--------------10---------|
E|-4------6------8---------|-11---------------8------------|

G|------------12-12/8---------8-7-5-|
D|-------13----------------10-------|
A|----13----------------10----------|
E|-11-----------------8-------------|

 "Press her...     Push her...      Pressure...      Press her."
G|-8------8-7-----|-8------8-7-----|-8------8-7-----|-8------8-7-----|
D|---8-5------8-5-|---8-5------8-5-|---8-5------8-5-|---8-5------8-5-|
A|----------------|----------------|----------------|----------------|
E|----------------|----------------|----------------|----------------|

 "I say yes. You say no but you can't complain..." 
G|------------12-12/8---------8-8/12-|------------12-12---------8-7-5-|
D|-------13----------------10--------|-------13--------------10-------|
A|----13----------------10-----------|----13--------------10----------|
E|-11-----------------8--------------|-11---------------8-------------|

 "With the sex. I don't know but it's all in vain."
G|------------12-12/8---------8-8/12-|------------12-12---------8-7-5-|
D|-------13----------------10--------|-------13--------------10-------|
A|----13----------------10-----------|----13--------------10----------|
E|-11-----------------8--------------|-11---------------8-------------|

 "I'm on my own. I'm on my own."
G|------------------------------------|
D|------6------8--------10---------13-|
A|---66-----88-----1010-------1313----|
E|-4------6------8---------11---------|

 "I'm on my own. I'm on my own."
G|------------------------------------|
D|------6------8--------10---------13-|
A|---66-----88-----1010-------1313----|
E|-4------6------8---------11---------|

 "I'm on my own. I'm on my own."
G|------------------------------------|
D|------6------8--------10---------13-|
A|---66-----88-----1010-------1313----|
E|-4------6------8---------11---------|

"I'm on my own. I'm on my..."
G|-------------------------|
D|------6------8--------10-|
A|---66-----88-----1010----|
E|-4------6------8---------|

Outro: (5/2 timing)
 "Own. (Slang Dang)"
 [  ----------  3x  ------------  ] 
G|---------------|----------12-12-|----------12-10-|-8-(let ring)-----|
D|-13-12-------8-|-13-12----------|-13-12----------|------------------|
A|-------13-10---|-------13-------|-------13-------|------------------|
E|---------------|----------------|----------------|------------------|
            
Submit corrections

↑ Back to top | Tablatures and chords for acoustic guitar and electric guitar, ukulele, drums are parodies/interpretations of the original songs. You may use it for private study, scholarship, research or language learning purposes only