Home » B » Born Ruffians »

Born Ruffians - Hummingbird Tabs

Artists:  A B C D E F G H I J K L M N O P Q R S T U V W X Y Z # 

Hummingbird Tabs

(ver. 1) Click to play this song!
Born Ruffians

                                    Oh, oh, ohh...
e|------------------------------0-2-3--------------------------|
B|------------------------0-1-3--------------------------------|
G|--------------------0-2--------------------------------------|
D|--------------0-2-4------------------------------------------|
A|--------0-2-3------------------------------------------------|
E|--3-2-3------------------------------------------------------|

e|------------------------------------------------|
B|------------------------------------------------|
G|------------------------------------------------|
D|------5-4-2--2222-------/4-4-44--2--------------| x2
A|------------------5-2-3-/5-5-55----2222-3-2-0—--|
E|--3-3-------------------------------------------|

  (come in at second half of verse)
e|-----------------------------------|
B|-----12------8-------7-------3-----|
G|-----------------------------------|
D|-----------------------------------|  x2
A|--10-------7-------5-------2-------|
E|-----------------------------------|

e|------------------------------|
B|------------------------------|
G|----0—-0-0-0-0-0-0-0----------|
D|----0—-0-0-3-3-0-3h0----------| x3
A|---------------------1h2------|
E|--3---------------------------|

e|------------------------------0-2---|
B|------------------------0-1-3-------|
G|--------------------0-2-------------|
D|--------------0-2-4-----------------|
A|--------0-2-3-----------------------|
E|--3-2-3-----------------------------|

  (come in at second half of verse)
e|-----------------------------------|
B|-----12------8-------7-------3-----|
G|-----------------------------------|
D|-----------------------------------|  x2
A|--10-------7-------5-------2-------|
E|-----------------------------------|

Scratching over the bass line

e|------------------------------0-2---|
B|------------------------0-1-3-------|
G|--------------------0-2-------------| x2
D|--------------0-2-4-----------------|
A|--------0-2-3-----------------------|
E|--3-2-3-----------------------------|

e|---15----------------15----------------------------------------------|
B|-----15----------------15--------------------------------------------|
G|-----------16—-x4------------16b17r16-----x4-------------------------|
D|--------17----------------17----------17-----------------------------|
A|---------------------------------------------------------------------|
E|---------------------------------------------------------------------|

e|------------15------------------15-----------------------------------|
B|------15-------15-------15---------15----15--------------------------|
G|---------16-------16-------16---------16------x3---------------------|
D|---17----------------17-------17-------------------------------------|
A|---------------------------------------------------------------------|
E|---------------------------------------------------------------------|

e|------------------------------0-2---|
B|------------------------0-1-3-------|
G|--------------------0-2-------------|
D|--------------0-2-4-----------------|
A|--------0-2-3-----------------------|
E|--3-2-3-----------------------------|

e|------------------------------|
B|------------------------------|
G|---0--0--0--------------------|
D|---4--2--0------------0---x3--|
A|------------2-2-2-2-3---------|
E|------------------------------|

e|------------------------------0-2---|
B|------------------------0-1-3-------|
G|--------------------0-2-------------|
D|--------------0-2-4-----------------|
A|--------0-2-3-----------------------|
E|--3-2-3-----------------------------|

e|------------------------------------------------------------------|
B|------------------------------------------------------------------|
G|---0--0--0---------------0--0--0--------------0--0--0-------------|
D|---4--2--0------------0--4--2--0--------------4--2--0-----------0-|
A|------------2-2-2-2-3-------------2-2-2-2-0------------2-2-2-2-3--|
E|--------------------------------------------3---------------------|

e|------------------------------0-2-3-|
B|------------------------0-1-3-------|
G|--------------------0-2-------------|
D|--------------0-2-4-----------------|
A|--------0-2-3-----------------------|
E|--3-2-3-----------------------------|

e|---------------------------------------------------------------------|
B|--------12----13------15-----13-----12-----13-----15------13-----13--|
G|---------------------------------------------------------------------|
D|-----12----12------12-----12-----12-----12-----12------12------12----|
A|--10-----10-----10-----10-----10-----10-----10------10------10-------|
E|---------------------------------------------------------------------|

e|------------------------------------------------|
B|------------------------------------------------|
G|------------------------------------------------|
D|------5-4-2--2222-------/4-4-44--2--------------| x4
A|------------------5-2-3-/5-5-55----2222-3-2-0—--|
E|--3-3-------------------------------------------|
            
Submit corrections

↑ Back to top | Tablatures and chords for acoustic guitar and electric guitar, ukulele, drums are parodies/interpretations of the original songs. You may use it for private study, scholarship, research or language learning purposes only