» » »

Born Of Osiris - Vengeance Tabs

Artists:  A B C D E F G H I J K L M N O P Q R S T U V W X Y Z # 

Vengeance Tabs

(ver. 1) Click to play this song!
Born Of Osiris
 Rating:
2.4/5 (24 votes)

 Vengeance  lessons Tabs too difficult? Try these video lessons and learn fast
 
                Tuning:

------------8h12-17p12p8--------------------8h12-17p12p8---------------------|
---------10--------------10--------------10--------------10------------------|
-------9--------------------9----------9--------------------9----------------|
----10------------------------10----10------------------------10-------------|
-12------------------------------12------------------------------------------|
-----------------------------------------------------------------------------|
                 T                             T
------------8h12-17p12/11p7---------------7h11-16p11p7h11p7------------------|
---------10-----------------9-----------9-------------------9----------------|
-------9----------------------8-------8-----------------------8--------------|
----10--------------------------9---9---------------------------9------------|
-12-------------------------------11-----------------------------------------|
-----------------------------------------------------------------------------|
                T                               T
----------7h11-16p11p7h11p7----------------8h12-17p12p8----------------------|
--------9-------------------9-----------10--------------10-------------------|
------8-----------------------8-------9--------------------9-----------------|
----9------------------------------10------------------------10--------------|
-11-----------------------------12-------------------------------CONTINUE----|
-----------------------------------------------------------------------------|

ENDING
----------7h11-16p11p7h11p7--------------------------------------------------|
--------9-------------------9------------------------------------------------|
------8-----------------------8----------------------------------------------|
----9---------------------------9--------------------------------------------|
-11--------------------------------------------------------------------------|
-----------------------------------------------------------------------------|            
Submit corrections


        Vengeance  lessons Hard to play? Try these video lessons and learn fast Vengeance  lessons
        
↑ Back to top | Tablatures and chords for acoustic guitar and electric guitar, ukulele, drums are parodies/interpretations of the original songs. You may use it for private study, scholarship, research or language learning purposes only