» » »

Born Of Osiris - Resilience Tabs

Artists:  A B C D E F G H I J K L M N O P Q R S T U V W X Y Z # 

Resilience Tabs

(ver. 1) Click to play this song!
Born Of Osiris
 Rating:
2.4/5 (22 votes)

 Resilience  lessons Tabs too difficult? Try these video lessons and learn fast
 
                 4/4
  Gtr I
   S  S  S  S  S  S      e  S  S  S  S  S  S  S  S  S  S  S  S  S  S
|-------15-18-15----||--18-17-18----17-------------------------------|
|----17----------17-||o----------20----18-20-17-18----17-------------|
|-18----------------||-----------------------------19----18-19----18-|
|-------------------||-----------------------------------------20----|
|-------------------||o----------------------------------------------|
|-------------------||-----------------------------------------------|


   S  S  S  S  S  S  S  S  S  S  S  S  S  S  S  S
|--------------------------------------------------|
|--------------------------------------------------|
|--------------------------------------------------|
|-19-20----19--------------------------------------|
|-------22----20-22-19-20-17-19-16-17-13-16-12-13--|
|--------------------------------------------------|


   S  S  S  S  S  S  S  S  S  S  S  S  S  S  S  S
|-------------------------------13----16-13-17-16-|
|-------------------------15-------15-------------|
|-------------------14-------14-------------------|
|-------14----15-------15-------------------------|
|-17-12----16----17-------------------------------|
|-------------------------------------------------|


   S  S  S  S  S  S  S  S  S  S  S  S  S  S  S  S  4x
|-16-17-13-16----13--------------------------------||
|-------------15-------15-------------------------o||
|-------------------14-------14--------------------||
|-------------------------15----14-15----14--------||
|-------------------------------------17----16-17-o||
|--------------------------------------------------||            
Submit corrections


        Resilience  lessons Hard to play? Try these video lessons and learn fast Resilience  lessons
        
↑ Back to top | Tablatures and chords for acoustic guitar and electric guitar, ukulele, drums are parodies/interpretations of the original songs. You may use it for private study, scholarship, research or language learning purposes only